Pies Descalzos, Sueños Blancos, Shakira (bajo)

Autor: Anónimo | 38565 visualizaciones



(Este Intro con guitarra es el mismo del coro, solamente
que en vez de tocar la nota del acorde una vez, se hace
8 veces)

                                                  _
                                                   |
Perteneciste a una raza antigua                    |
de pies descalzos y de sueños                      |
blancos fuiste polvo, polvo eres, piensa           |
                                                   |
                                                   |
G|--------------------------2--------------------  |
D|2-------------4--------------------------------  |
A|-----------------------------------------------  |
E|-----------------------------------------------  |---(Coro)
                                                   |
que el hierro siempre al calor es blando.          |
                                                   |
G|-----------------------------------------------  |
D|-----------------------------------------------  |
A|-------2--------------------------0------------  |
E|-----------------------------------------------  |
                                                   |
                                                  _|

(Durante el Riff de la guitarra)


G|---------------
D|2-2-2-2-2-2-2-2 (4 veces)
A|---------------
E|---------------

                                           _
  E                                         |
       Tu mordiste la manzana_y             |
                                            |
G|------------------------------            |
D|2--2--2--2--1--1--1--1--------            |
A|------------------------4--4--            |
E|------------------------------            |
                                            |
       renunciaste_al para - iso_y          |
                                            |
G|------------------------------            |
D|------------------------------            |
A|------4-4---4---4----4-4---0-0            |
E|------------------------------            |
                                            |---- (1)
       condenaste_a_una serpiente           |
                                            |
G|-------------------------------           |
D|-------------------------------           |
A|------0--0-0----0---0--0---2--2           |
E|-------------------------------           |
                                            |
       siendo tu_el que_así lo              |
                                            |
G|----------------------------              |
D|----------------------------              |
A|-------2--2---2------2--2--2              |
E|----------------------------             _|

 (1)
quiso.
                  C#m
Por milenios y milenios
                 A
permaneciste desnudo
                        B
y te enfrentaste a dinosaurios

bajo un techo y sin es ...
  
                                             _
                                              |
        C#m               E                   |
       cudo.   Y_ahora_estás aquí             |
                                              |
G|---------------------------------------     |
D|---------------------------------------     |
A|------4-4-4-4-4--4--4---2--2--2-2-2-2-2     |
E|---------------------------------------     |
                                              |
  C#m             E                           |
       queriendo ser feliz,                   |
                                              |
G|------------------------------              |
D|------------------------------              |
A|-4-4-4-4--4--4--2---2-2--2-2-2              |
E|------------------------------              |
                                              |
  C#m              E                          |---(2)
       cuando no te_importó_un                |
                                              |
G|------------------------------              |
D|------------------------------              |
A|-4-4-4-4--4--4---2---2---2----              |
E|------------------------------              |
                                              |
          A    E     B                        |
       pepino tu destino.                     |
                                              |
G|------------------------------              |
D|-------------2----------------              |
A|------2-0----------2----------              |
E|------------------------------              |
                                              |
                                             _|


(Coro)

E         F#m         A
  Perteneciste a una raza antigua
     B
de pies descalzos y de sueños
  E             F#m         A
blancos fuiste polvo, polvo eres, piensa
         B                          A     E B
que el hierro siempre al calor es blando.


(1)               
   Construiste un mundo exacto
de acabados tan perfectos;
cada cosa calculada
en su espacio y a su tiempo.

Yo que soy un caos completo
las entradas, las salidas,
los nombres y las medidas
no me caben en los ...

 (2)
sesos.  Y ahora estás aquí
queriendo ser feliz,
cuando no te importó
un pepino tu destino.


(Coro)
E         F#m         A
  Perteneciste a una raza antigua
     B
de pies descalzos y de sueños
  E             F#m         A
blancos fuiste polvo, polvo eres, piensa
         B
que el hierro siempre al calor es ...

E         F#m         A
  Perteneciste a una raza antigua
     B
de pies descalzos y de sueños
  E             F#m         A
blancos fuiste polvo, polvo eres, piensa
         B                          D
que el hierro siempre al calor es blando


(Notas para el acorde respectivo)


G|---------------
D|2-2-2-2-2-2-2-2   ----> (E)
A|---------------
E|---------------

G|2-2-2-2-2-2-2-2
D|---------------   ----> (A)
A|---------------
E|---------------

G|---------------
D|0-0-0-0-0-0-0-0   ----> (D)
A|---------------
E|---------------

G|---------------
D|---------------   ----> (B)
A|2-2-2-2-2-2-2-2
E|---------------

G|---------------
D|4-4-4-4-4-4-4-4   ----> (F#m)
A|---------------
E|---------------


(Puente)

D
  Saludar al vecino
                 E
acostarse a una hora 

trabajar cada dia 
                  D    
para vivir en la vida

y contestar solo aquello 
              B
y sentir solo esto 

y que Dios nos ampare 
                E  
de malos pensamientos. 
                 F#m    
Cumplir con las tareas, 
              A
asistir al colegio. 
                B
¿Qué diría la familia 
                 E
si eres un fracasado? ,
                 F#m
Ponte siempre zapatos, 
                      A
no hagas ruido en la mesa 
              B
usa medias veladas
                   E
y corbata en las fiestas. 
                F#m
Las mujeres se casan 
                   A
siempre antes de treinta 
                B
si no vestiran santos  
                      E
y aunque asi no lo quieran
                    F#m
y en la fiesta de quince  
                 A
es mejor no olvidar 
              B
una fina champaña 

y bailar bien el


 vals

G|2-2------------
D|----2-2--------
A|--------2-2----
E|---------------
  
y bailar bien el

 vals.

G|2-2------
D|--------2
A|----2-2--
E|---------

Fuente original: LaCuerda
Colaborador original: CaRlOs ToRrEs -[SuPeR pElUcHiN]- [[email protected]]





Calificar esta versión:
Aviso: Este fichero es trabajo propio de su transcriptor y representa su interpretación personal de la canción. El material contenido en esta página es para exclusivo uso privado, por lo que se prohibe su reproducción o retransmisión, así como su uso para fines comerciales.
Más versiones de Pies Descalzos, Sueños Blancos, Shakira
Pies Descalzos, Sueños Blancos
acordes
Pies Descalzos, Sueños Blancos (ver 2)
acordes
Pies Descalzos, Sueños Blancos
tablatura
Pies Descalzos, Sueños Blancos
bajo
Descubre más canciones de Shakira