No, Shakira (tablatura)

Autor: Anónimo | 42982 visualizaciones



-= Capo en el primer traste=-

Intro:

E|-----------------------------3-2--------------------------------3-2-----------
A|-----------5-2--5-5-5-5-0-2------------------5-2-2--7-7-7-7-0-2---------------
D|-4-4-4-7-4------------------------4-4-4-7-4-----------------------------------
G|------------------------------------------------------------------------------
B|------------------------------------------------------------------------------
E|------------------------------------------------------------------------------

No, no intentes disculparte
No juegues a insistir
Las excusas ya existían antes de ti
E|---------------------------------------------------0---------0----------------
A|-2-2-------0-----------------------2-2-----0-0---0---0---------0--------------
D|-----4-0-0---2---2-2-4---4-5-0---0-------0-----4-------0---0-----0------------
G|---------------2-------2-------0-------0-----------------2---------2----------
B|------------------------------------------------------------------------------
E|------------------------------------------------------------------------------

No, no me mires como antes
No hables en plural
La retórica es tu arma más letal
E|---------------------------------------------------0---------0----------------
A|-2-2-------0-----------------------2-2-----0-0---0---0---------0--------------
D|-----4-0-0---2---2-2-4---4-5-0---0-------0-----4-------0---0-----0------------
G|---------------2-------2-------0-------0-----------------2---------2----------
B|------------------------------------------------------------------------------
E|------------------------------------------------------------------------------

Voy a pedirte que no vuelvas más
Siento que me duelas todavía aquí
Adentro
E|------------------------------------------------------------------------------
A|------------------------------------------------------------------------------
D|---------------------------------------------------0--------------------------
G|-----------------4-----4-----0-------0---------------0-----2-2-4--------------
B|-0-2-3-2-3-5---3-----3-----0-------0---0-3-2-3-5-2-----3-2-------3-2----------
E|-------------5-----5-----2-----5-2--------------------------------------------

Y que a tu edad sepas bien lo que es
Romperle el corazón a alguien así
E|------------------------------------------------------------------------------
A|------------------------------------------------------------------------------
D|------------------------------------------------------------------------------
G|-----------------4-----4-----4-----4-0--------------7-------7-----------------
B|-0-2-3-2-3-5---3-----3-----3-----3-----0-3-2-2-5-2----7---7-------------------
E|-------------5-----5-----5-----5------------------------7---------------------

No se puede vivir con tanto veneno,
La esperanza que me da tu amor
No me la dio más nadie,
Te juro, no miento

No se puede vivir con tanto veneno
No se puede dedicar el alma
A acumular intentos
Pesa más la rabia que el cemento
  |--------La--------|  |--------Mim--------| |----------La----------| 
E|--------------------------------------------------------------------
A|-0---------------------2---------2-----------0----------------------
D|---2-----2-----2---------2---------2-----------2-------2-----2------
G|-------2-----2----2--------0---0-----0---0-------2---2-----2-----2--
B|-2---2-----2-----------------0---------0-----------2-----3-----2----
E|-----------------0--------------------------------------------------


|--------Mim--------|  |-----------La-----------| |-----Mim-----|
---------------------------------------------------------------3-
--2---------2------------0--------------------------2------------
----2---------2------------2-------2-------2----------2----------
------0---0-----0---0--------2---2---2---2-----2--------0---0----
--------0---------0------------2-------3-----3------------0------
-----------------------------------------------------------------


Intro

-= Se repite la misma estructura de los versos =-

Espero que no esperes que te espere
Después de mis 26
La paciencia se me ha ido hasta los pies
Y voy deshojando margaritas
Y mirando sin mirar
Para ver si así te irritas y te vas
Voy a pedirte que no vuelvas más
Siento que me duelas todavía aquí
Adentro
Y que a tu edad sepas bien lo que es
Romperle el corazón a alguien así
No se puede vivir con tanto veneno
La esperanza que me dio tu amor
No me la dio más nadie
Te juro, no miento
No se puede morir con tanto veneno
No se puede dedicar el alma
A acumular intentos
Pesa más la rabia que el cemento

(Intro)

No se puede vivir con tanto veneno.. uhh uhhh (Toda esta parte se toca así)
  |---La---| |---Re---| |---Re---| |---Re---|
E|--------------------------------------------
A|--------------------------------------------
D|--------------------------------------------
G|-2---2------2---2------4---4--------4-------
B|---2---2------3---3------5---5----5-----5---
E|--------------------------------------5-----

Parte Final:

E|------------------------------------------------------------------------------
A|------------------------------------------------------------------------------
D|----------------------------------------------------------------2-------------
G|---------------------------------------9---9---9---9---9---9--------2---------
B|-5---5---5---5----5---5---5---5---5-------------------------------2-----------
E|---5---5---5---5----7---7---7---7---7----9---9---9---9---9---9----------------
                                                                    No


Bueno, pues esta es la transcripcion de NO, de mi amada shaki, al parecer aún
no esta al 100

Fuente original: LaCuerda
Colaborador original: rEsEnDiZ [[email protected]]





Calificar esta versión:
Aviso: Este fichero es trabajo propio de su transcriptor y representa su interpretación personal de la canción. El material contenido en esta página es para exclusivo uso privado, por lo que se prohibe su reproducción o retransmisión, así como su uso para fines comerciales.
Más versiones de No, Shakira
No
acordes
No (ver 2)
acordes
No
tablatura
Descubre más canciones de Shakira