Las De La Intuición, Shakira (bajo)

Autor: Anónimo | 17218 visualizaciones



Aca esta toda la cancion
pero se repiten desde y el amor talvez hasta el final del coro
Intro
E|----------|-3-3---3-|---------|------------|
A|--3-3---3-|-----1---|-5-5---5-|-3-5-5---5--|x2
D|------1---|---------|-----3---|-------3----|
G|----------|---------|---------|------------|

No me preguntes
E|-------------|-3-3--3--3--|------------|-------------|
A|--3-3--3--3--|------------|-5-5--5--5--|-1-1--1--1---|X4
D|-------------|----5-----5-|------------|-------------|
G|-----5-----5-|------------|----7-----7-|----3-----3--|

(creo que los bajos recien entran aca)
"pero arriba ta la intro pues me gusta"
Y el amor talvez
E|-------------|-------------|------------|--------------|
A|--1--1-1--1--|-1--1-1---1--|-5--5-5--5--|-5--5-5---5---|
D|-------------|-------------|------------|--------------|
G|----3-3----3-|---3-3---3-3-|---7-7----7-|---7-7---7-7--|

Y asi como vez...........sera cuestion
E|--------------|-33-33-|-11-11--|
A|--33-33-33-33-|-------|--------|
D|--------------|-------|--------|
G|--------------|-------|--------|

Creo que empiezo
E|--1--1--1--1--|-------------|-3--3--3--3--|--------------|
A|--------------|-3--3--3--3--|-------------|-1--1--1--1---|
D|---3--3--3--3-|-------------|--5--5--5--5-|--------------|
G|--------------|--5--5--5--5-|-------------|--3--3--3--3--|

Los que
E|--------------|-------------|-------------|--------------|
A|--5--5--5--5--|-3--3--3--3--|-1--1--1--1--|-1--1--1--1---|
D|--------------|-------------|-------------|--------------|
G|---7--7--7--7-|--5--5--5--5-|--3--3--3--3-|--3--3--3--3--|

Tengo el presentimiento
E|--1--1--1--1--|-------------|-3--3--3--3--|--------------|
A|--------------|-3--3--3--3--|-------------|-1--1--1--1---|
D|---3--3--3--3-|-------------|--5--5--5--5-|--------------|
G|--------------|--5--5--5--5-|-------------|--3--3--3--3--|

Y las mujeres somos
E|--------------|-------------|-------------|--------------|
A|--5--5--5--5--|-3--3--3--3--|-1--1--1--1--|-1--1--1--1---|
D|--------------|-------------|-------------|--------------|
G|---7--7--7--7-|--5--5--5--5-|--3--3--3--3-|--3--3--3--3--|

..por
E|--------------|-----|-----|-----|
A|--------------|-----|-----|-----|
D|--------------|-5-5-|-----|-8-8-|
G|--3/5555555/3-|-----|-7-7-|-----|

Yo te propongo un
E|------|-----|-----|-----|
A|------|-----|-----|-----|
D|------|-5-5-|-----|-8-8-|
G|--5-5-|-----|-7-7-|-----|

Yo me propongo ser
E|------|-----|-----|-------|
A|------|-----|-----|-8-8---|
D|------|-5-5-|-----|--8-8--|
G|--5-5-|-----|-7-7-|-------|

Y el amor talvez
E|-------------|-------------|------------|--------------|
A|--1--1-1--1--|-1--1-1---1--|-5--5-5--5--|-5--5-5---5---|
D|-------------|-------------|------------|--------------|
G|----3-3----3-|---3-3---3-3-|---7-7----7-|---7-7---7-7--|

Y asi como vez...........sera cuestion
E|--------------|-33-33-|-11-11--|
A|--33-33-33-33-|-------|--------|
D|--------------|-------|--------|
G|--------------|-------|--------|

Creo que empiezo
E|--1--1--1--1--|-------------|-3--3--3--3--|--------------|
A|--------------|-3--3--3--3--|-------------|-1--1--1--1---|
D|---3--3--3--3-|-------------|--5--5--5--5-|--------------|
G|--------------|--5--5--5--5-|-------------|--3--3--3--3--|

Los que
E|--------------|-------------|-------------|--------------|
A|--5--5--5--5--|-3--3--3--3--|-1--1--1--1--|-1--1--1--1---|
D|--------------|-------------|-------------|--------------|
G|---7--7--7--7-|--5--5--5--5-|--3--3--3--3-|--3--3--3--3--|

Tengo el presentimiento
E|--1--1--1--1--|-------------|-3--3--3--3--|--------------|
A|--------------|-3--3--3--3--|-------------|-1--1--1--1---|
D|---3--3--3--3-|-------------|--5--5--5--5-|--------------|
G|--------------|--5--5--5--5-|-------------|--3--3--3--3--|

Y las mujeres somos
E|--------------|-------------|-------------|--------------|
A|--5--5--5--5--|-3--3--3--3--|-1--1--1--1--|-1--1--1--1---|
D|--------------|-------------|-------------|--------------|
G|---7--7--7--7-|--5--5--5--5-|--3--3--3--3-|--3--3--3--3--|

Uhh (Es la mitad del coro)
E|--1--1--1--1--|-------------|-3--3--3--3--|--------------|
A|--------------|-3--3--3--3--|-------------|-1--1--1--1---|
D|---3--3--3--3-|-------------|--5--5--5--5-|--------------|
G|--------------|--5--5--5--5-|-------------|--3--3--3--3--|

Uhhh
E|--------------|-------------|-------------|--------------|
A|--5--5--5--5--|-3--3--3--3--|-1--1--1--1--|-1--1--1--1---|
D|--------------|-------------|-------------|--------------|
G|---7--7--7--7-|--5--5--5--5-|--3--3--3--3-|--3--3--3--3--|

(Otra vez todo el coro) se repite
F C G A# F C G A# con sus respectivas octavas

ohh
E|--1-|---|---|----|------|---|----|
A|----|-3-|-1-|-1--|--1/5-|-3-|-1--|
D|----|---|---|----|------|---|----|
G|----|---|---|----|------|---|----|

atte. miauricio gatolar





Calificar esta versión:
Aviso: Este fichero es trabajo propio de su transcriptor y representa su interpretación personal de la canción. El material contenido en esta página es para exclusivo uso privado, por lo que se prohibe su reproducción o retransmisión, así como su uso para fines comerciales.
Más versiones de Las De La Intuición, Shakira
Las De La Intuicion
acordes
Las De La Intuición
bajo
Descubre más canciones de Shakira