La Tortura, Shakira (bajo)

Autor: Anónimo | 37937 visualizaciones



Esta esta facil

Intro
E|--------|
A|--12/5--|
D|--------|
G|--------|

Ay payita mia
E|--5---|-3---|-----|------|
A|----3-|---2-|-3---|-5----|
D|------|-----|---2-|---3--|
G|------|-----|-----|------|

A G C D x2

No pido que
E|------|-|-----|-|-------|-1-----|-0-3---|-------|
A|--0-0-|-|-0-0-|-|-3-0-3-|---0-3-|-----2-|-33-2--|
D|------|-|-----|-|-------|-------|-------|-------|
G|------|-|-----|-|-------|-------|-------|-------|

Tampoco
E|----------|-|---------|-|-------|-1-----|-0-3---|--------|
A|--0-3---0-|-|-0-3---0-|-|-3-0-3-|---0-3-|-----2-|-33-22--|
D|------2---|-|-----2---|-|-------|-------|-------|--------|
G|----------|-|---------|-|-------|-------|-------|--------|

Ay amor
     x2       x2      x2               x2
E|--------|-------|-------|---------|-------|--------|
A|--5-8---|-7-----|-------|---------|-5-8---|--------|
D|------7-|---6-9-|-7-----|-7-9-----|-----7-|-5-5-5--|
G|--------|-------|---5-9-|-----5-6-|-------|--------|

Yo se
E|----|-3-|---|---|----|-33-|----|-----|
A|--0-|---|-3-|-5-|-00-|----|-33-|-55--|
D|----|---|---|---|----|----|----|-----|
G|----|---|---|---|----|----|----|-----|

Solo de
E|-----|-33-|----|----|----|-33-|-----|------|
A|--00-|----|-33-|-55-|-00-|----|-333-|-555--|
D|-----|----|----|----|----|----|-----|------|
G|-----|----|----|----|----|----|-----|------|

  A G C D A G
E|-|-|-|-|-|-|-----|------|
A|-|-|-|-|-|-|-333-|-555--|
D|-|-|-|-|-|-|-----|------|
G|-|-|-|-|-|-|-----|------|

No puedo
E|-----------|-|----------|-|-------|-1-----|-0-3---|-------|
A|--0-3---00-|-|-0-3---00-|-|-3-0-3-|---0-3-|-----2-|-33-2--|
D|------2----|-|-----2----|-|-------|-------|-------|-------|
G|-----------|-|----------|-|-------|-------|-------|-------|

No puedo
E|-----------|-|----------|-|-------|-1-----|-0-3---|--------|
A|--0-3---00-|-|-0-3---00-|-|-3-0-3-|---0-3-|-----2-|-33-22--|
D|------2----|-|-----2----|-|-------|-------|-------|--------|
G|-----------|-|----------|-|-------|-------|-------|--------|

Ay amor
     x2       x2     x2                x2
E|--------|-------|-------|---------|-------|--------|
A|--5-8---|-7-----|-------|---------|-5-8---|--------|
D|------7-|---6-9-|-7-----|-7-9-----|-----7-|-5-5-5--|
G|--------|-------|---5-9-|-----5-6-|-------|--------|

Yo se
E|----|-3-|---|---|----|-33-|----|-----|
A|--0-|---|-3-|-5-|-00-|----|-33-|-55--|
D|----|---|---|---|----|----|----|-----|
G|----|---|---|---|----|----|----|-----|

Solo de
E|-----|-33-|----|----|----|-33-|-----|------|
A|--00-|----|-33-|-55-|-00-|----|-333-|-555--|
D|-----|----|----|----|----|----|-----|------|
G|-----|----|----|----|----|----|-----|------|

E|-----|-33-|----|----|----|-33-|-----|------|
A|--00-|----|-33-|-55-|-00-|----|-333-|-555--|
D|-----|----|----|----|----|----|-----|------|
G|-----|----|----|----|----|----|-----|------|

No te bajes esta en A

Yo se
E|--|-|-----|-----|----|-33-|----|-----|
A|--|-|-3---|-5---|-00-|----|-33-|-55--|
D|--|-|-----|-----|----|----|----|-----|
G|--|-|---5-|---7-|----|----|----|-----|

Solo de
E|----|-3-|---|----|
A|--0-|---|-3-|-5--|
D|----|---|---|----|
G|----|---|---|----|

Ay
E|-----|---33-|-3----|--------|
A|--00-|-0----|---33-|-3-555--|
D|-----|------|------|--------|
G|-----|------|------|--------|

        todo lo
E|-----|---33-3-3-|-------|------------|
A|--00-|-0-----2--|-3-----|-5-------5--|
D|-----|----------|---2-5-|---4-7------|
G|-----|----------|-------|-------7----|

        fue una tortura
E|-----|---3-----3-|-------|--------|
A|--00-|-0---0-2---|-3---3-|-5---5--|
D|-----|-----------|---2---|---7----|
G|-----|-----------|-------|--------|

  sigo llorando
E|--------|-33-3---3-|-------|------------|
A|--0-3-0-|------2---|-3-----|-5-------5--|
D|--------|----------|---2-5-|---4-7------|
G|--------|----------|-------|-------7----|

yo no voy
E|-----|---33-|-3---|--------|
A|--00-|-0----|--33-|-3-555--|
D|-----|------|-----|--------|
G|-----|------|-----|--------|

atte. miauricio gatolar





Calificar esta versión:
Aviso: Este fichero es trabajo propio de su transcriptor y representa su interpretación personal de la canción. El material contenido en esta página es para exclusivo uso privado, por lo que se prohibe su reproducción o retransmisión, así como su uso para fines comerciales.
Más versiones de La Tortura, Shakira
La Tortura
acordes
La Tortura
bajo
Descubre más canciones de Shakira