La Loba, Shakira (tablatura)

Autor: crissguitar | 42148 visualizaciones



Hola Ps. este es un post, de la cancion de shakira ``la loba´´

INTRO

e----------------|----------------|
B----------------|----------------|
G ---4-----------|---7---------4--|
D -------4----5--|--------7-------|
A -2-------------|-5---------2----|
E -----2---3-----|------5---------|

e----------------|----------------|
B----------------|----------------|
G ---4-----------|---7---------4--|
D -------4----5--|--------7-------|
A -2-------------|-5---------2----|
E -----2---3-----|------5---------|

Riff (suena a lo largo de toda la cancion)

   (este mas veces)
e---17-17-17--17-19--|-17-17-17-19-|
B---15-15-15--15-15--|-17-17-17-17-|
G -------------------|-------------|
D -------------------|-------------|
A -------------------|-------------|
E -------------------|-------------|

VERSOS

Bm F# G    D  A  Bm


SOLO

e-10-9-7----7------------------------------|
B--------10---10-7-10----------------------|
G ---------------------9-9-9-7-9-7---------|
D ---------------------------------9-------|
A -----------------------------------------|
E -----------------------------------------|

Si hay un error o algo ya saben no duden en avisarme =D no cuesta nada intentar.





Calificar esta versión:
Aviso: Este fichero es trabajo propio de su transcriptor y representa su interpretación personal de la canción. El material contenido en esta página es para exclusivo uso privado, por lo que se prohibe su reproducción o retransmisión, así como su uso para fines comerciales.
Más versiones de La Loba, Shakira
La Loba
acordes
La Loba
tablatura
Descubre más canciones de Shakira