Gitana, Shakira (tablatura)

Autor: esthefanyd | 22097 visualizaciones



C#     D#m ??    B     F#

e|---4--------6-------2-----2--|
B|---6--------6-------4-----2--|
G|---6--------8-------4-----3--|
D|---6--------8-------4-----4--|
A|---4--------6-------2-----4--|
E|---4--------6-------2-----2--|


INTRO:


    C#                       D#m ??

|--x-----------------------|--x-----------------------|
|--x--6---6/7/6------------|--x-----------------------|
|--6----6---------6---6----|--x--8----8p6---6h8-------| X4
|--6----------------6------|--8----8------8-----------|
|--4-----------------------|--6-----------------------|
|--x-----------------------|--x-----------------------|



ESTROFA:

   C#                       D#m ??

|--x-----------------------|--x-----------------------|
|--x--6---6/7/6------------|--x-----------------------|
|--6----6---------6---6----|--x--8----8p6---6h8-------| X3
|--6----------------6------|--8----8------8-----------|
|--4-----------------------|--6-----------------------|
|--x-----------------------|--x-----------------------|


   B                         F#

|--x-----------------------|--x-----------------------|
|--x--4----4/5/4---4---4---|--x---2---2---2-----------|
|--x----4------------4-----|--x-----3-----3-----------|
|--4-----------------------|--4-----------------------|
|--2-----------------------|--4-----------------------|
|--X-----------------------|--2-----------------------|


 C#                       D#m ??

|--x-----------------------|--x-----------------------|
|--x--6---6/7/6------------|--x-----------------------|
|--6----6---------6---6----|--x--8----8p6---6h8-------| X3
|--6----------------6------|--8----8------8-----------|
|--4-----------------------|--6-----------------------|
|--x-----------------------|--x-----------------------|


   B                         F#

|--x-----------------------|--x-----------------------|
|--x--4----4/5/4---4---4---|--x---2---2---2-----------|
|--x----4------------4-----|--x-----3-----3-----------|
|--4-----------------------|--4-----------------------|
|--2-----------------------|--4-----------------------|
|--X-----------------------|--2-----------------------|


Coro: (ritmo)

       C#
Y va liviano
             D#m ??
Mi corazón gitano
     C#
Que solo entiende de latir
      D#m ??
A contramano
       C#
No intentes amarrarme
    D#m ??
Ni dominarme
  C#
Yo soy quien elige
          D#m ??
Como equivocarme
    B
Aprovechame que si llegué ayer
              F#
Me puedo ir mañana


Que soy gitana

|---------------------------|-------------------------|
|-9-9-9-7-7-7-7-7-6-6-6-6-6-|-------------------------|
|---------------------------|-6-6-6-8-----------------|
|---------------------------|---------6---------------|
|---------------------------|-------------------------|
|---------------------------|-------------------------|


Que soy gitana

|---------------------------|-------------------------|
|-9-9-9-7-7-7-7-7-6-6-6-6-6-|-------------------------|
|---------------------------|-6-6-6-8-----------------|
|---------------------------|---------6---------------|
|---------------------------|-------------------------|
|---------------------------|-------------------------|

ESTROFA:

   C#                       D#m ??

|--x-----------------------|--x-----------------------|
|--x--6---6/7/6------------|--x-----------------------|
|--6----6---------6---6----|--x--8----8p6---6h8-------| X3
|--6----------------6------|--8----8------8-----------|
|--4-----------------------|--6-----------------------|
|--x-----------------------|--x-----------------------|


   B                         F#

|--x-----------------------|--x-----------------------|
|--x--4----4/5/4---4---4---|--x---2---2---2-----------|
|--x----4------------4-----|--x-----3-----3-----------|
|--4-----------------------|--4-----------------------|
|--2-----------------------|--4-----------------------|
|--X-----------------------|--2-----------------------|

Coro: (ritmo)

       C#
Y va liviano
             D#m ??
Mi corazón gitano
     C#
Que solo entiende de latir
      D#m ??
A contramano
       C#
No intentes amarrarme
    D#m ??
Ni dominarme
  C#
Yo soy quien elige
          D#m ??
Como equivocarme
    B
Aprovechame que si llegué ayer
              F#
Me puedo ir mañana



PUENTE:

         C#
Vamos y vemos..
                  D#m ??
Que la vida es un goce
                  C#
Es normal que le temas
               D#m ??
A lo que no conoces


          C# 
Tómame y vamos
                  D#m ??
Que la vida es un goce
                  C#
Es normal que le temas
             D#m ??
A lo que no conoces
               C#  D#m ??
Quiero verte volar
               C#  D#m ??
Quiero verte volar



Coro: (ritmo lento)

       C#
Y va liviano
             D#m ??
Mi corazón gitano
     C#
Que solo entiende de latir
      D#m ??
A contramano
       C#
No intentes amarrarme
    D#m ??
Ni dominarme
  C#
Yo soy quien elige
          D#m ??
Como equivocarme
    B
Aprovechame que si llegué ayer
              F#
Me puedo ir mañana

Que soy gitana


|-------------------------|
|-------------------------|
|--5h6-6-5h6-6~~~-------- |
|-------------------------|X3
|-------------------------|
|-------------------------|





Comentarios del colaborador: comenten puro oido!!!

Calificar esta versión:
Aviso: Este fichero es trabajo propio de su transcriptor y representa su interpretación personal de la canción. El material contenido en esta página es para exclusivo uso privado, por lo que se prohibe su reproducción o retransmisión, así como su uso para fines comerciales.
Más versiones de Gitana, Shakira
Gitana
acordes
Gitana
tablatura
Descubre más canciones de Shakira