Donde Estan Los Ladrones?, Shakira (tablatura) (ver 2)

Autor: Anónimo | 17063 visualizaciones



intro
e-------------------------2-2---------||
b-2--2-3-2-2--2-3-2-2-----3-3---------||
g-2--2-2-2-2--2-2-2-2---4-----4----4--||
d-2---------------------4-------4--4--||
a-------------------------------------||
e-------------------------------------||


            x2
e--2-2------*2-2----------------------||
b--3-3------*3-3----------------------||
g------4----*2-2-------1h2~2p1-1-1----||
d--------4----------2-----------------||
a-------------------2-----------------||
e-------------------------------------||


verso: lo mismo que la intro pero en segundo y tercero cambia
e-2-2-2----------2----------2---------||
b-3-----3----------3----------3-------||
g-4-------4----2-----2----2-----2-----||
d-4----------0----------0----------2--||
a-2--------------------------------2--||
e-2-----------------------------------||



e-------------------------------------||
b-------------------------------------||
g-1h2-2p1-1-1-------------------------||
d-------------------------------------||
a-------------------------------------||
e-------------------------------------||



coro: guitarra con distorsión.

e-------------------------------------||
b-------------------------------------||
g-------------------------------------||
d-7~---4-/-6-/-7------9-/-11-/-12-~---||
a-7~---4-/-6-/-7--x2--9-/-11-/-12-~---||
e------2-/-4-/-5------7-/-9--/-10-~---||




e-------------------------------------||
b-------------------------------------||
g-9~----------------------------------||
d-9~----------------------------------||
a-7~ este ultimo con vibrato----------||
e-------------------------------------||



e-------------------------------------||
b-------------------------------------||
g-6-6-5h6-5-3--6--6-5h6-5-8~----------||
d-6------------6----------------------||
a-4-----------------------------------||
e-------------------------------------||


final:
e-------------------------------------||
b-2-2-3-2---2h3~------2h3-3-3p2------2||
g-2-------2-------x3------------4-2--2||
d-2----------------------------------2||
a-------------------------------------||
e-------------------------------------||

*= palm mute

Fuente original: LaCuerda
Colaborador original: [_torto_] [[email protected]]





Calificar esta versión:
Aviso: Este fichero es trabajo propio de su transcriptor y representa su interpretación personal de la canción. El material contenido en esta página es para exclusivo uso privado, por lo que se prohibe su reproducción o retransmisión, así como su uso para fines comerciales.
Más versiones de Donde Estan Los Ladrones?, Shakira
Donde Estan Los Ladrones?
acordes
Donde Estan Los Ladrones?
tablatura
Donde Estan Los Ladrones? (ver 2)
tablatura
Donde Estan Los Ladrones?
armonica
Descubre más canciones de Shakira