Antologia, Shakira (bajo)

Autor: Anónimo | 36804 visualizaciones



Que ondas, pues aqui les tengo el bajo de la rola de 
antologia, espero y les guste, la afinacion del bajo 
es normal (G-D-A-E), SUERTE!!!

G---------------------------------------------------
D---------------------------------------------------
A-3--3---3--3---0--0---0--0-------------------------  
E--------------------------1--1---1--1---3--3---3--3

y en el segundo 0:59 cambia a:

G-----------------------
D-----------------------
A-3------0--------------  (x2)
E-----------1------3----

y en el minuto 1:18 cambia a:

G--------------------------------------------------
D--------------------------------------------------
A-3-3--3-3-3-3--0-0--0-0-0------------------------- (x1)
E---------------------------1-1--1-1-1--3-3--3-3-3-

en el minuto 1:28 cambia a:

G-----------------------------------------------------------------------------
D-----------------------------------------------------------------------------
A-3-3--333--3-3--333--0-0--000--0-0--000--------------------------------------  (x2)        
E-----------------------------------------1-1--111--1-1-111--3-3--333--3-3-333

y en el minuto 2:08 cambia a:

G--------------------------------------------------
D--------------------------------------------------
A-3-3--3-3-3-3--0-0--0-0-0------------------------- (x2)
E---------------------------1-1--1-1-1--3-3--3-3-3-

y en el minuto 2:21 hasta que se termina es:

G-----------------------------------------------------------------------------
D-----------------------------------------------------------------------------
A-3-3--333--3-3--333--0-0--000--0-0--000--------------------------------------  (x5)        
E-----------------------------------------1-1--111--1-1-111--3-3--333--3-3-333
 NOTA:
en esta ultima parte son 5 veces como lo escribi pero
la quinta se baja de volumen poco a poco hasta terminar,
sale pues espero y les salga, esta larga pero vale la pena,
sale adios y recuerden:

         NO IMPORTA LO QUE HAGAS, SI NO QUIEN ERES MIENTRAS LO HACES

Fuente original: LaCuerda
Colaborador original: Alejandro Alcaraz Garcia. [[email protected]]





Calificar esta versión:
Aviso: Este fichero es trabajo propio de su transcriptor y representa su interpretación personal de la canción. El material contenido en esta página es para exclusivo uso privado, por lo que se prohibe su reproducción o retransmisión, así como su uso para fines comerciales.
Más versiones de Antologia, Shakira
Antologia
acordes
Antologia (ver 2)
acordes
Antologia (ver 3)
acordes
Antologia
bajo
Descubre más canciones de Shakira