Anarchy In The Uk, Sex Pistols (tablatura) (ver 3)

Autor: linkyn | 29898 visualizaciones



E|----------------------------------|
B|----------------------------------|    INTRO
G|-12-----10-----9-----7-----5------|
D|-12(x9)-10(x7)-9(x3)-7(x3)-5(x22)-|
A|-10-----8------7-----5-----3------|
E|----------------------------------|

E|--------------------------------------------|
B|---------------------------------------------|
G|-5-5---5-5-5---5-5-5---10-10-10-9--------------|
D|-5-5---5-5-5---5-5-5---10-10-10-9--(todo esto x6)--|
A|-3-3-0-3-3-3-0-3-3-3-0-8--8--8--7----------------|
E|-----------------------------------------------|

E|--------------------------------|
B|--------------------------------|
G|-12-----10-----9-----7-----------| despues repites el segundo 
D|-12(x9)-10(x7)-9(x3)-7(x3)-------|
A|-10-----8------7-----5----------|
E|--------------------------------|

y despues el solo:

E|---12---------13--------12--------13------------------|
B|-----13---------14--------13--------14---------------|
G|-14/----14-15/----15-14/----14-15/----15---------------|
D|---------------------------------------------------------|
A|-------------------------------------------------------|
E|--------------------------------------------------------|

E|--------------------------------------------------------------|
B|--------------------------------------------------------------|
G|-11-11-11-11-13-13-13-13-15-15-15-15-15/3-3-5-----------------|
D|---------------------------------------------3-5--------------|
A|------------------------------------------------3-3h5-3-------|
E|--------------------------------------------------------------|

y repiten otrta ves

me falto un solo pero sepues lo subo, si hay algo malo aganlo saber ;)





Calificar esta versión:
Aviso: Este fichero es trabajo propio de su transcriptor y representa su interpretación personal de la canción. El material contenido en esta página es para exclusivo uso privado, por lo que se prohibe su reproducción o retransmisión, así como su uso para fines comerciales.
Más versiones de Anarchy In The Uk, Sex Pistols
Anarchy In The Uk
acordes
Anarchy In The Uk
tablatura
Anarchy In The Uk (ver 2)
tablatura
Anarchy In The Uk (ver 3)
tablatura
Descubre más canciones de Sex Pistols