Eiti Leda, Seru Giran (bajo)

Autor: Anónimo | 31037 visualizaciones



(empieza sin bajo)

Quiero verte la cara 
brillando como una esclava negra
sonriendo con ganas, nena.

Lejos, lejos de casa 
no tengo nadie que me acompañe a ver la mañana. 
Y que me de la inyección a tiempo, 
antes que se me pudra el corazón.
Ni calienten estos huesos fríos, nena.

Quiero verte desnuda 
el día que desfilen los cuervos
que han sido salvados, nena.

Sobre alguna autopista, 
que tenga infinitos carteles 
que no digan nada.

Y realmente quiero que te rías 
y que digas que es un juego no más.
O me mates este mediodía, nena.

G|--x9-7-------9--------|---x9-7--------x-97----|
D|-------9-6--------678-|--------9-6--------976-|
A|x----------7---88-----|-7----------7----------|
E|----------------------|-----------------------|

G|--x9-7-------9--------|---x9-7--------141211---------|
D|-------9-6--------678-|--------9-6--------- 141211---|
A|x----------7---88-----|-7----------7--------------14-|
E|----------------------|------------------------------|


G|-------9~9~~-|------9~9~~-|-------------------679|
D|-------------|------------|----------------------|
A|-7-77--------|-7-77-------|----------------------|
E|-------------|------------|-00-00-00-000-0-0-----|

G|-------9~9~~-|------9/11-9|---------------------9|
D|-------------|------------|----------------------|
A|-7-77--------|-7-77-------|----------------------|
E|-------------|------------|-00-00-00-000-0-0-----|


(Entrando al cuarto, volando bajo...)
G|--------------12-|----10-9--7----|-------------------|
D|------------11---|----12-10-587--|------------111213-|
A|------111214-----|-------------8-|-------------------|
E|-12--------------|---------------|-0-----------------|

G|--------------1217|1514---------10-9--7-7-|
D|------------11----|-----171514--12-10-5-5-|
A|------111214------|-----------------------|
E|-12---------------|-----------------------|

G|-------------------------------------|
D|-9999999899999989999999899999-9------|
A|--------------------------------9----|
E|----------------------------------11-|

G|-------------|-------------|-------------|-----------|
D|-------------|-------------|-------------|-----------|
A|----10-10-10-|----10-10-10-|----10-10-10-|----10-679-|
E|-8-8---------|-8-8---------|-8-8---------|-8-8-------|

G|---5-------------5--532-----|---5----5--------|
D|-----2-223345-----5----532--|---------22345---|
A|-3--3-3---------5---------5-|-3--333----------|
E|--------------3-------------|---------------3-|

G|---x------|-----------|----------------|
D|---x-h(9)-|-h(9)-h(9)-|-h(9)-h(9)------| h(9) >harmonico en traste 9
A|---x------|-----------|-----------7____| 7___ >mantiene la nota
E|---x------|-----------|----------------|

SOLO

G|-11/14-12-----12-----------------------|
D|---------1515-------1412----------12---|
A|---------------15-------151412------14-|
E|------------------------------1512-----|

G|---------------------------------1412--------------------12-------|
D|-------12--------/141512-------15----151412------------15--1512---|
A|---1112--141211---------1412---------------151412----15--------15-|
E|-12------------12------------12------------------1215-------------|

G|-/1412-----------------------
D|------151412-----------------
A|------------151412------1215-
E|------------------151412-----

---------------------------14121412--------
---------------1212----1214--------14----12
--------141412----1214--------------1215--
-1212h11-----------------------------------

12----------------1412-------------------------|
--1412----12----------1514121512----12---------|
------1514--1512----------------1514--141211~~-|
----------------12------------------------12~~-|

G|---------------1115171921(bend22)-17151417--1514---------|
D|---------111214---------------------------17----171514---|
A|---111214---------------------------------------------17-|
E|-12------------------------------------------------------|

G|-14---------------------------------------------------|
D|---171514------------10129----------------9------9----|
A|---------1715-----912-----12109------9-12-----912--12-|
E|-------------12912-------------129/10-------10--------|

PARTE RAPIDA DEL SOLO QUE YO CHAMUYO UNA ESTRUCTURA COMO ESTA
EN DIFERENTES TONOS (no creo que mi oido tenga tanta destreza)
G|------------------|
D|---------11-------|
A|---111214--141211-|
E|-12---------------|
FIN DEL SOLO


PUENTE
G|------5-5-------5-5------5--5---5--5-5--|
D|-----------------5--------57------------|
A|-3-33------3-33-----3-33------3--33-3-3-|
E|----------------------------------------|

G|---5--5-----------5-5-532---|---5----5---|
D|--------223345-----5----532-|------------|
A|-3--33----------------------|-3--333-----|
E|--------------3-------------|----------3-|

Quiero quemar de a poco 
las velas de los barcos anclados 
en mares helados, nena. 

(Este invierno fue malo)
G|----------------------------|--------------------------------|
D|----------------------------|------------6-7-----------6-8-9-|
A|----------------------------|------6-7-9---------6-7-9-------|
E|-7--77--7--77--7--77--7--77-|-67-9----------67-9-------------|

G|-------------------------------|---------------------|
D|---------------4-7-------4-7---|---------------------|
A|-------7-77--5-------4-7-------|-6-7-9-----2-5-----7-|
E|-7-77--------------5---------7-|-------7-3-----3-7---|

G|----------------|
D|----------------| (hace una especie de slay, pero lo corta
A|-17/------------|  al pasar dos trastes)
E|-----12/-10/-8/-|

G|------------------------|------------------------|
D|------------------------|------------------------|
A|------------------------|------------------------|
E|-0--0--0--0--0--0--0--0-|-0--0--0--0--0--0--0--0-|

G|----------------------------|------------------------|
D|----------------------------|------------------------|
A|-------------15/------------|------------------------|
E|-0--0--0--0------12/-10/-8/-|-0--0--0--0--0--0--0--0-|

G|----------------------------|------------------------|
D|----------------------------|------------------------|
A|----------------------------|------------------------|
E|-0--0--0--12~--0--0--0--12~-|-0--0--0--0--0--0--0--0-|

G|---------------------------------|----------------------------|
D|---------------------------------|----------------------------|
A|--------------------------14-----|----------------------------|
E|-0--0--0--12~--0--0--0-/15--1512-|-0--0--0--0--0--0--012--012-|

G|-------------------------------|----------------------------|
D|-------------------------------|----------------------------|
A|-------------------------------|----------------------------|
E|-0--0--012--012-0--0--012--012-|-0--0--012--012--0--0--0--0-|

G|--------9-------9---------11--------11-
D|-1091012-1091012--12111214--12111214---
A|--------------------------------------- 
E|---------------------------------------
--------13----------13----------13-----------------|
14131416--1614131416--1614131416--161413-----------|
----------------------------------------161413-----|
----------------------------------------------1614-|
(no estoy seguro de la ultima parte)

G|-----------------------9--9-|-----------------------9--9-|
D|-----------------------------|-----------------------------|
A|-----------------------------|-----------------------------|
E|-0--0--012--012-0--0--0--0---|-0--0--012--012-0--0--0--0---|

G|------------------------------------------|--|-9-|
D|------------------------------------------|--|-9-|
A|-77-77-77-777--77-77-77-777--77-77-77-777-|--|-7-|
E|-------------0-------------0--------------|0-|---|
(puede terminar de las dos maneras)  
FIN :D

=================================================
Tengan en cuenta que Aznar usa un bajo sin trastes,
por lo qe algunas notas suenan distintas, poruqe se
ubican entre medio de los trastes comunes. Si tienen
alguna correccion mandenmela al mail que aparece en
los datos del colaborador.

Fuente original: LaCuerda
Colaborador original: Rodrigo Magariños [roy_maga@hotmail.com]





Calificar esta versión:
Aviso: Este fichero es trabajo propio de su transcriptor y representa su interpretación personal de la canción. El material contenido en esta página es para exclusivo uso privado, por lo que se prohibe su reproducción o retransmisión, así como su uso para fines comerciales.
Más versiones de Eiti Leda, Seru Giran
Eiti Leda
acordes
Eiti Leda (ver 2)
acordes
Eiti Leda (ver 3)
acordes
Eiti Leda (ver 4)
acordes
Eiti Leda
bajo
Eiti Leda
teclado
Descubre más canciones de Seru Giran