Baila Esta Cumbia, Selena (tablatura)

Autor: yakkito | 35362 visualizaciones



intro

          C-G-C-G-C-G-C-G
              teclado:
E||----------------------------------------|
B||----5----------10-8-----5---------------|
G||--5----7-7-7-7--------5----7-7-7-7------|
D||-----------------------------------7-5--|
A||----------------------------------------|
E||----------------------------------------|

parte rapida:
            G-G7-G-G7-G-G7
              teclado:
E||-----------------------------------------------|
B||--10-8-10-8----------10-8-10-8-----------------|
G||------------12-10--------------10-12-9-10-7-9--|     X 2
D||------------------12---------------------------|
A||-----------------------------------------------|
E||-----------------------------------------------|


  G          G7
siento algo que me mueve
  G          G7           *(1)
un ritmo que me hace bailar
  G          G7
tomen todos sus parejas
  G          G7           *(2)
todos vamos a gozar.


         *(1)               *(2)
E||------------------||-----------------------|
B||--6—8--10--12—8-8-||-----------------------|
G||------------------||--12--10--9------------|
D||------------------||-------------12--10----|
A||------------------||-----------------------|
E||------------------||-----------------------|

  (C-G-C-G7)
baila, baila esta cumbia
mueve, mueve la cintura
todos las manos en alto
y griten griten con locura.

        G     G7    C

E||-----3-----3-----3------|
B||-----3-----3-----5------|
G||-----4-----4-----5------|
D||-----5-----3-----5------|
A||-----5-----5-----3------|
E||-----3-----3-----3------|





Comentarios del colaborador: asi es toda la rola no kreo necesario completarla, si se te complica o kieres k la complete mandame un mail, para hacerlo.

Calificar esta versión:
Aviso: Este fichero es trabajo propio de su transcriptor y representa su interpretación personal de la canción. El material contenido en esta página es para exclusivo uso privado, por lo que se prohibe su reproducción o retransmisión, así como su uso para fines comerciales.
Más versiones de Baila Esta Cumbia, Selena
Baila Esta Cumbia
acordes
Baila Esta Cumbia
tablatura
Baila Esta Cumbia
bajo
Descubre más canciones de Selena