Still Loving You, Scorpions (tablatura) (ver 2)

Autor: jimmi page jr | 22178 visualizaciones

Still loving you
Afinación en mi bemol
El arpegio lleva capo-trasto en el sexto traste
/------------------------------------------------------------------------------------------------------------/
/---6-------------------9-----------------7---------------------------------7-------------------6---------/
/------------------------------------------------------------------------------------------9--------------8/
/-------------8-------------------8-------------------8-------------------------------8----------------6-/
/----------9-------------------9-------------------9-----------------9------------9-----------------8---/
/-------7-------------------7------------------7------------10-9-7-----------7------------------6-----/

/------------------------------------------------------------------------------------------------------------/
/--6--------------9---------------7--------------------------------------7---------------6----------------/
/-------------------------------------------------------------------------------------9---------------------/
/-----------8---------------8---------------8-------------------------------------8--------------6--------/
/---------9--------------9---------------9---------------------------9---------9--------------8-------8--/
/------7--------------7---------------7-----------10?9h10p9-7---------7----------------------6-----/

Time, it needs time?
/--------------------------------------------------------/         /---------------------------------------/   
/---6----------------------------6----------------------/         /--------------------------------------/   
/--------------------------------------------------------/         /--6----------------------------------/  x2
/-------------8-------8-----------------9-------9------/   x4  /---------------10----------10------/
/----------9--------9-----------------8-------8--------/        /-----------11-----------11----------/ 
/-------7---------7-------7--------7-------7------7---/        /-------10-----------10---------10--/

/----------------------------------/
/---6-----------------------------/
/--------------9-------9---------/
/-----------8--------8-----------/-x2
/---------8--------8------8-----/
/--------------------------------/

1st solo
 /--------------------------------------------------------------------------------------------------------/
/---------------------------------------------------------------------------------------------------------/
/---4s6-------------------------------------6--------------lento----------------------------------------/
/--------3-4-6?4p3h4---3-1?3s4s3------3-4-6-4---6bbbbb8-----------------------------------/
/---------------------------------------------------------------------------------------------------------/
/---------------------------------------------------------------------------------------------------------/

/--------------------------------------------------------------------------------------------------------/
/--------------------------------------------------------------------------------------------------------/
/--------------------------------------------------------------------------------------------------------/
/-12s13--------------------------------13-------------------------------------------------------------/
/----------11-12--14---12-11-12--------12--------------------14b15p12-14---------------------/
/-------------------------------------------------14-14b15-------------------------------------------/
Luego pongo lo demás que me dio weba acabarla

Comentarios del colaborador: si no sale la tablatura bien copiala a word y listo

Calificar esta versión:
Aviso: Este fichero es trabajo propio de su transcriptor y representa su interpretación personal de la canción. El material contenido en esta página es para exclusivo uso privado, por lo que se prohibe su reproducción o retransmisión, así como su uso para fines comerciales.
Más versiones de Still Loving You, Scorpions
Still Loving You
acordes
Still Loving You
tablatura
Still Loving You (ver 2)
tablatura
Still Loving You (ver 3)
tablatura
Still Loving You (ver 4)
tablatura
Descubre más canciones de Scorpions