No One Like You, Scorpions (tablatura) (ver 2)

Autor: lautaro.r | 21106 visualizaciones



Main Riff 

|----------------------------------| 
|----------------------------------| 
| -2-2 ------------------------------| 
| -2-2 -------- 3-3 -------- 5-5 --------| 
| -0-0 -------- 3-3 -------- 5-5 --------| 
|------------ 1-1 -------- 3-3 --------| Rpt 3 x 


|---------------------------------| 
|---------------------------------| 
|---------------------------------| 
| -3 ----( 3 )----- 2 - (2 )-------------| 
| -3 ----( 3 )----- 2 - (2 )-------------| 
| -1 ----( 1 )----- 0 - (0) - 0-3p0-3p0 - | 


|----------------------------------| 
|----------------------------------| 
| -2-2 ------------------------------| 
| -2-2 -------- 3-3 -------- 5-5 --------| 
| -0-0 -------- 3-3 -------- 5-5 --------| 
|------------ 1-1 -------- 3-3 --------| Rpt 3 x 


|--------------------------------------------| 
|--------------------------------------------| 
|--------------------------------------------| 
| -3 ----( 3 )----- 2 ------------( 2 )--------------| 
| -3 ----( 3 )----- 2 ------------( 2 )--------------| 
| -1 ----( 1 )----- 0 ------------( 0 )--------------| 

  Plomo Intro 
      ~~~~~~~~~~~~~ H ~~~~~~~~~ 
| --- 15fb ---------- \ ---------------------------------- -----------| 
|------------------------- 13----------- ------------ ---------- 13 - | 
|------------------- 14-16 ---- 16-14-12-14p12 ------------ 14-16 - --- | 
|------------------------------------------- 14 ----- -------------| 
|------------------------------------------------- --------------| 
|------------------------------------------------- --------------| 

                    ~~~~~~~~~~ ~~~~~~~~ 
|------------- 15----------- - \ ------- ----------- 17-20B FB - r20 ------- | 
|---------- 15b --- 15fb ------------- 17-20B ---- ------------- 20p17 ------| 
| -16-14-12--------------------/19--------------------- --------------| 
|------------------------------------------------- ------------------| 
|------------------------------------------------- ------------------| 
|------------------------------------------------- ------------------| 

                            ~~~~~ ~~~~~ 
| -17-20-19-17-19-17 ---- 17----------- --------------------- - | 
20 ter |------------------- 20 ---- --- \ 15b --- r15p13 ---- 15b ---- \ - | 
|--------------------------------------------- 14 --- --------| 
|------------------------------------------------- ---------| 
|------------------------------------------------- ---------| 
|------------------------------------------------- ---------| 


  Guitar 1 
      ~~~~~~~~~~~~~ H ~~~~~~~~~ 
[--- 15fb ---------- \ ---------------------------------- -----------| 
[------------------------- 13----------- ------------ ---------- 13 - | 
[------------------- 14-16 ---- 16-14-12-14p12 ------------ 14-16 - --- | 
[------------------------------------------- 14 ----- -------------| 
[------------------------------------------------- --------------| 
[------------------------------------------------- --------------| 
[Guitar 2 
[--- 18fb ------------------ 12 -------------------------- ------- 12 - | 
[------------------- 13-15 ---- 15-13-12-13p12 ------------ 13-15 - --- | 
[------------------------------------------- 14 ----- -------------| 
[------------------------------------------------- --------------| 
[------------------------------------------------- --------------| 
[------------------------------------------------- --------------| 

  Guitar 1 
                    ~~~~~~~~~~ ~~~~~~~~ 
[------------- 15----------- - \ ------- ----------- 17-20B FB - r20 ------- | 
[---------- 15b --- 15fb ------------- 17-20B ---- ------------- 20p17 ------| 
[-16-14-12--------------------/19--------------------- --------------| 
[------------------------------------------------- ------------------| 
[------------------------------------------------- ------------------| 
[------------------------------------------------- ------------------| 
[Guitar 2 
[~~~~~~~~~~ ~~~~~~~~ 
[------------- 20 ------------------------ 17 ------- 20 B-FB - R20 -------- | 
[-15-13-12-18b --- 18fb ------------ 17-20B ---- 20p17 ----------------- --- | 
[----------------------------/ 19----------- -------- -----------------| 
[------------------------------------------------- ------------------| 
[------------------------------------------------- ------------------| 
[------------------------------------------------- ------------------| 

  Guitar 1 
                            
[-17-20-19-17-19-17 ---- 17 ---- 17---------- 17----------- ----- ------------| 
[------------------- 20 ---- 20B --- 20-17 ------- 20p17-17-18-17-15-13 -12brp-| 
[------------------------------------- 19 ter ----------- -------------------| 
[------------------------------------------------- ---------------------| 
[------------------------------------------------- ---------------------| 
[------------------------------------------------- ---------------------| 
[Guitar 2 
[---------------------------- 10---------- 10--------- -------------------| 
[-15-18-17-15-17-15-13-15-13b --- 13-10 ------- 13p10-13-15-13-12----- 12brp | 
[------------------------------------- 12 ter ----------- ---------- 14 -------| 
[------------------------------------------------- ---------------------| 
[------------------------------------------------- ---------------------| 
[------------------------------------------------- ---------------------| 

  Guitar 1 
                      ~~~~~~~~~~~~~~~ 
[------------------ 12----------- ----- \ - | 
[-10-12 ---- p10 -------------------------- | 
[---------------------------------------| 
[---------------------------------------| 
[---------------------------------------| 
[---------------------------------------| 
[Guitar 2 
[~~~~~~~~~~~~~~~ 
[------------------ 12----------- ----- \ - | 
[-10-12 ---- p10 -------------------------- | 
[---------------------------------------| 
[---------------------------------------| 
[---------------------------------------| 
[---------------------------------------| 

  Verse 

  Guitarra limpia 

|--------- 0 ----------- 1 ------------- 0 ---------- 1 -- - | 
|------- 1 --- 1 ------- 1 ------------- 1 --- 1 ------- 1 --- - | 
|----- 2 ------- 2 --- 2 ------------- 2 ------- 2 --- 2 ----- - | 
| --- 2 ----------- 3 ------- 2-0 --- 2 ----------- 3 ------- - | 
| -0 ------------------------- 3-0 ------------------- - | 
|------------------------------------------------- - | 


|------- 0 ------------- 1 ----------------- 0 --------- ----- 0 - | 
|----- 1 --- 1 --------- 1 --- 1 ------------- 1 ---- 1 ------ --- 0 ----| 
| --- 2 ------- 2 ----- 2 ----------------- 0 -------- 0 ---- -1 ------| 
| -2 ----------- 2-3 --------- 2-0 ------------------ 2 -- --------| 
| -0 --------------------------- 0-2-3 --------------- --------| 
|------------------------------------------------- --------| 

  Distorted llenar 

|-----------------| 
|-----------------| 
|-----------------| 
|------- 2-0 -------| 
|----- 2 ----- 2-3 - \ - | 
| -0-4 -------------| 

  Reproducciones distorsionado riff de guitarra "limpia", junto con 
      ~ ~ ~ 
|----------------------------| 
|----------------------------| 
|----------------------------| 
| -2 ----- 2 --- 2 ----------------| 
| -0 ----- 0 --- 0 --- 3 - (3) -2-3/5-- | 
|---- 3 -------- 3-1 - (1 )--------| 

      ~ ~ ~ ~~~~~~~ 
|-----------------------------| 
|-----------------------------| 
|-----------------------------| 
| -2 ----- 2 --- 2 -----------------| 
| -0 ----- 0 --- 0 --- 3 - (3) -3 - 2 - 0 - | 
|---- 3 -------- 3-1 - (1 )---------| 

      ~ ~ ~ 
|----------------------------| 
|----------------------------| 
|----------------------------| 
| -2 ----- 2 --- 2 ----------------| 
| -0 ----- 0 --- 0 --- 3 - (3) -2-3/5-- | 
|---- 3 -------- 3-1 - (1 )--------| 

  Guitar 1 
[----------------------------------------| 
[----------------------------------------| 
[-5 --------------- 9 ------------------ 9 - \ - | 
[-5 --------------- 9 ------------------ 9 - \ - | 
[-3 -----( 3 )------- 7 ------------------ 7 - \ - | 
[----------------------------------------| 
[Guitar 2 
[Phphphphphph 
[----------------------------------------| 
[----------------------------------------| 
[----------------------------------------| 
[----------------------------------------| 
[--------------------- 7-7 ----------------| 
[------------------------- 7-7 - 4-4-0-0 --- | 

  Estribillo 

  Rpt principal Riff con plomo llena 

|------------------------------------------------- - | 
|------------------------------------------------- - | 
|-r PB7 ----- ----- 7p5 - 7 ter a los comentarios --------- ----- \ --- | 
|------------------------------------------------- - | 
|------------------------------------------------- - | 
|------------------------------------------------- - | 

  Rpt Verso 
  Rpt Chorus 

  phphph ~~~~~ 
|-------------------| 
|----- 5 -------------| 
| -5-7 ---------------| 
|------- 7-7 ------ \ - | 
|-------------------| 
|-------------------| 

             ~~~~~~~~~~~ 
|----- 10 --- 15b --------- \ - | 
|-12b --------------------- | 
|-------------------------| 
|-------------------------| 
|-------------------------| 
|-------------------------| 

    ph ~~~~~~~~~~~~~~~~~~~ 
|-----------------------------| 
|-------- 8FB ------------------ | 
|-----------------------------| 
|-----------------------------| 
| --- 0 -------------------------| 
| -1 --- 3 -----------------------| 

  Pista para solo de guitarra principal Riff 2 x 

  Solo de guitarra 
                                         ~~~~~~~~~~~~~~ 
|------------------------------------------------- ------------------| 
|-------------------------------------- 8b ---------- --- \-10b-r-10p8 - | 
|-7b-7b-7b-7b-7b-7b-7b-7br7-7-7bp5-7p5 --------------------------- --- | 
|------------------------------------------------- ------------------| 
|------------------------------------------------- ------------------| 
|------------------------------------------------- ------------------| 

                                   h ~~~~~~~ 
|--------------------- 5 --------------------------- -----------------| 
|-10 - 13 ---- b ------- 5 --- 7p5 --------------------------- -------------| 
7-b |-------------- 5-7p5 ---------- ---- -------------- 7p5 -------------| 
|--------------------------------- 7 ------ 7p5-7p5 ------ -------------| 
|------------------------------------------------ 7 -6-5-3-b ------ r - | 
|------------------------------------------------- -----------------| 

  Guitar 1 
      ~~~~~~~~~~~~~ H ~~~~~~~~~ 
[--- 15fb ---------- \ 19fb ---------------------- --------- \ -- - | 
[------------------------- 13----------- ------------ ------| 
[------------------- 14-16 ---- 16-14-12-14 ---------------- - | 
[------------------------------------------------- -------| 
[------------------------------------------------- -------| 
[------------------------------------------------- -------| 
[Guitar 
[~~~~~~~~~~~~~ ~~~~~~~~~ 
[--- 18fb ----------- \ 17-19-20-19-17-15-17-22fb --------- \ - | 
[------------------------------------------------- -------| 
[------------------------------------------------- -------| 
[------------------------------------------------- -------| 
[------------------------------------------------- -------| 
[------------------------------------------------- -------| 



|-------- 17 ---- 17 ---- 17 ---- 17 ---- 17 ---- 17-20b-17 ---- 17-20b-17 -- - 17 - | 
20 ter |----- 20B --- 20 ter --- 20 ter --- --- --- 20 ter ---------- 20 ter ---------- 20B-20B - | 
| -/19---------------------------------------------- -----------------| 
|------------------------------------------------- ------------------| 
|------------------------------------------------- ------------------| 
|------------------------------------------------- ------------------| 

                 ~ ~ ~ 
|---- 1717-1616-15 -------- 15---------- 15---------- 15--------- --------| 
|-20b -------------- 15-17 ---- 17-15-17 ---- 17-15-17 ---- 17-15-17-20b - --- | 
|------------------------------------------------- ------------------| 
|------------------------------------------------- ------------------| 
|------------------------------------------------- ------------------| 
|------------------------------------------------- ------------------| 

                                          ~ ~ ~ ~ ~ 
|----- 17----------- -------------------------------- | 
|-20fb --- 20-17-16-17-16-15 ------------------------- | 
|-------------------------- 14-13----------- --------| 
|-------------------------------- 14-12 - 10 ---- 12 - \ - | 
|------------------------------------------------- - | 
|------------------------------------------------- - | 

  Rpt Chorus to fade 

  Guitarra adicional 
  ------------------- [------------------ PM] 
|------------------------------------------| 
|------------------------------------------| 
|------------------------------------------| 
| -2-2-2-2-2-2-2-2 --------------------------| 
| -0-0-0-0-0-0-0-0-3-3-3-3-3-3-5-5-5-5-5-5 - | 
|----------------- 1-1-1-1-1-1-3-3-3-3-3-3 - | Rpt 3 x





Comentarios del colaborador: http://www.guitaretab.com

Calificar esta versión:
Aviso: Este fichero es trabajo propio de su transcriptor y representa su interpretación personal de la canción. El material contenido en esta página es para exclusivo uso privado, por lo que se prohibe su reproducción o retransmisión, así como su uso para fines comerciales.
Más versiones de No One Like You, Scorpions
No One Like You
tablatura
No One Like You (ver 2)
tablatura
Descubre más canciones de Scorpions