Boig Per Tu, Sau (bajo)

Autor: gegege8 | 41710 visualizaciones



  F              Bb
    En la terra humida escric 

G|------------------------------------
D|------------------------------------
A|---------0---1------1--1-1h3--------
E|--1--3-------------------------1----


    F           Bb
    nena estic boig per tu

G|-----------------------------------
D|-----------------------------------
A|-----------0---1-------------------
E|-1--3----------------------3--1----
   Gm            Bb
   em passo els dies
 
G|------------------------------------
D|------------------------------------
A|---------------1--------------------
E|------3-----------------------------

      G    F  C
  esperant la nit.

G|------------------------------------
D|------------------------------------
A|-0-----------3-------1--------------
E|----3----1------1h3----3---1--------


*lo mismo pero diferente estrofa


Com et puc estimar                                             
si de mi estàs tan lluny                               
servil i acabat                   
boig per tu           



-Aqui cambia:
		   F  Bb F Bb 
	 boig per tu 
 G|----------------------------------
 D|----------------------------------
 A|-------1h3------------1------1-3--
 E|------------1----1h3-----1h3------


    C                    Dm
    Sé molt bé que des d'aquest bar 

G|------------------------------------
D|------------------------------------
A|-3---33-------0-------5---------55--
E|------------------------------------

 
        Bb                 F
  jo no puc arribar on ets tu

G|-------------------------------------
D|----------------------------------1h3
A|-0----1-----11-------3--------1h3----
E|-------------------------1--1--------

    C                   Dm
    però dins la meva  copa  veig 

G|------------------------------------
D|-3-----30---0--3-----3p1-0----------
A|----------------------------5-------
E|------------------------------------

 
 
       Bb            F
   reflexada la teva llum

G|-----------------------------------
D|-----------------------------------
A|-0--1-----11---0-------------------
E|-------------------1---------------
     
       C     Dm
   me la beuré 

G|------------------------------------
D|------------------------------------
A|-11----5----55h7--------------------
E|-----------------5h7----3-----------

  Gm           Bb
  servil i acabat

G|------------------------------------
D|------------------------------------
A|-33----0--1-----11------------------
E|------------------------------------
        
             F  Bb  F  Bb
   boig per tu

G|----------------------------------
D|----------------------------------
A|-0----1-----11--------------------
E|----------------------------------

*Aqui más estrofas pero no iguales
 quedan asi:
 

     F              Bb
     Quan no siguis al matí

G|------------------------------------
D|------------------------------------
A|------------0---1---11---3----------
E|-1-11--3----------------------------

     F             Bb
     les llàgrimes es perdran

G|------------------------------------
D|------------------------------------
A|------------0---1---11--------------
E|-1-11--3--------------------3---1---

     Gm           Bb
     entre la pluja

G|-----------------------------------
D|-----------------------------------
A|-------------0-1-11----------------
E|---33--3---------------------------
       
           G F C  F  Bb  F  Bb
   que caurà avui.

G|------------------------------------
D|------------------------------------
A|-1p0----------3-33---30--0----------
E|------3--11-----------------3--1----

*lo mismo pero diferente estrofa



Em quedaré atrapat					       
hebri d'aquesta llum				      
servil i acabat                     
boig per tu           


-Aqui cambia:
 		  F  Bb F Bb
        boig per tu 
 G|-----------------------------------
 D|-----------------------------------
 A|---0-------------------1------1---3
 E|----------1--11---1h3-----1h3------







Comentarios del colaborador: una cançó preciosa que espero que us agradi. dedicada a la Maria Montobbio, ja que encara estic boig per ella.

Calificar esta versión:
Aviso: Este fichero es trabajo propio de su transcriptor y representa su interpretación personal de la canción. El material contenido en esta página es para exclusivo uso privado, por lo que se prohibe su reproducción o retransmisión, así como su uso para fines comerciales.
Más versiones de Boig Per Tu, Sau
Boig Per Tu
acordes
Boig Per Tu (ver 2)
acordes
Boig Per Tu
bajo
Descubre más canciones de Sau