Siento Que No Estas, Saratoga (tablatura)

Autor: morpheus2040 | 40881 visualizaciones



      Sol#m       Mi        Fa#           Sol#m
e-------------------2------------------------------
B------4-----------0---------2----------------4------
G-------4--------1------------3-----------------4----
D----6----6----------------4---4----------6-------6--
A---6---------------------4-------------6------------
E--4-----------0--------2-------------4--------------
 Llorando en la noche, cantando sin ti.

Sol#m       Mi        Fa#           Sol#m
e-------------------2------------------------------
B------4-----------0---------2----------------4------
G-------4--------1------------3-----------------4----
D----6----6----------------4---4----------6-------6--
A---6---------------------4-------------6------------
E--4-----------0--------2-------------4--------------
  Recuerdo momentos, que añoro vivir.

Sol#m            Mi   Fa#           Sol#m
Me faltan tus manos, tu paso al andar.
Sol#m               Mi   Fa#               Sol#m
No encuentro el camino ¡Siento que no estás!

Mi                Fa#        Sol#m-Fa#-Mi (cambios rápidos)
No quiero que el mundo nos separe más.
Mi             Fa#          Sol#m-Fa#-Mi
Jura que a mi lado siempre vas a estar.
Mi              Fa#        Sol#m-Fa#-Mi
No quiero el destino ni verte marchar.
Mi            Fa#             Sol#m
¡Tan sólo te pido que mires atrás!

Sol#m             Mi    Fa#          Sol#m
Llorando en la noche, cantando sin ti,
Sol#m         Mi     Fa#           Sol#m
Recuerdo momentos, tan lejos de ti….

Mi            Fa#           Sol#m-Fa#-Mi
Si vienes conmigo el tiempo curará
Mi           Fa#           Sol#m-Fa#-Mi
las viejas heridas que nos hizo andar.
Mi              Fa#       Sol#m-Fa#-Mi
Te encuentro perdido, sin sentido estás.
Mi            Fa#              Sol#m
¡Tan sólo te pido que mires atrás!

Sol#m                Fa#
Di que conmigo de nuevo reirás.
Sol#m                     Fa#
Di que en tu pecho aun puedo llorar
Sol#m                    Re#m
No es tan difícil volver a soñar.

 Do#m                 Fa#                  Sol#m
¡Rompe ese muro que un día nos supo alejar!


Do#m                Fa#
Volvamos a sitios lejanos
                  Sol#m
que en tiempos pasados vivimos los dos…
Do#m                 Fa#                      Sol#m  Fa#
Vayamos en busca del lago porque aun no secó…

Do#m                Fa#
Dejemos orgullos mundanos.
               Sol#m
Sabes que arrimado siempre estaré yo.
Do#m                       Fa#
Luchemos juntos contra el tiempo
            Sol#m   Fa#   Sol#m
que nos separó…


/(Aquí va el solo, que aún no lo he podido sacar)/


Sol#m                Fa#
Di que conmigo de nuevo reirás.
Sol#m                     Fa#
Di que en tu pecho aun puedo llorar
Sol#m                    Re#m
No es tan difícil volver a soñar.

 Do#m                 Fa#                  Sol#m
¡Rompe ese muro que un día nos supo alejar!


Do#m                Fa#
Volvamos a sitios lejanos
                  Sol#m
que en tiempos pasados vivimos los dos…
Do#m                 Fa#                      Sol#m  Fa#
Vayamos en busca del lago porque aun no secó…


Sol#m             Mi   Fa#           Sol#m
Llorando en la noche, cantando sin ti,
Sol#m         Mi    Fa#            Sol#m
Recuerdo momentos, que añoro vivir….




      Mi             Fa#        Sol#m   Fa#   Mi
e------2--------------------------------------------2---
B----0-----------------2--------------------------0-----
G---1--------------------3----------------------1-------
D--------------------4-----4--------6------4------------
A------------------4--------------6------4--------------
E--0-------------2--------------4------2-------0--------
No quiero que el mundo nos   sepa------re     más.






      Mi             Fa#        Sol#m   Fa#   Mi
e------2-------------------------------------------2---
B----0----------------2--------------------------0-----
G---1-------------------3----------------------1-------
D-------------------4-----4--------6------4------------
A-----------------4--------------6------4--------------
E--0------------2--------------4------2-------0--------
  Jura que a mi   lado siempre  vas a estar.


      Mi             Fa#        Sol#m   Fa#   Mi
e------2-------------------------------------------2---
B----0----------------2--------------------------0-----
G---1-------------------3----------------------1-------
D-------------------4-----4--------6------4------------
A-----------------4--------------6------4--------------
E--0------------2--------------4------2-------0--------
  No quiero el  destino ni  verte       marchar.


 Mi          Fa#              Sol#m          Sol#m-Mi-Fa#-Sol#m
¡Tan sólo te pido que mires atráaa-aa-aa--as!

Fa#         Si     Mim
Río si tú eres feliz.
Fa#         Si         Mim
Lloro si triste es tu fin.
Fa# #          Si    Mim
Sangro si sangro por ti…
Fa# #                 Sol#m
¡vamos amigo hacia ti!


Do#m  La  Si  Do#m

        ¡Ooh!¡Ooh!
   ¡Siento que no estás!!!
Calificar esta versión:
Aviso: Este fichero es trabajo propio de su transcriptor y representa su interpretación personal de la canción. El material contenido en esta página es para exclusivo uso privado, por lo que se prohibe su reproducción o retransmisión, así como su uso para fines comerciales.
Más versiones de Siento Que No Estas, Saratoga
Siento Que No Estás
acordes
Siento Que No Estás (ver 2)
acordes
Siento Que No Estas
tablatura
Descubre más canciones de Saratoga