Perro Traidor, Saratoga (bajo)

Autor: Anónimo | 40523 visualizaciones

F#||-------|
C#||-------|
G#||-------|
D#||-------|


  |--3--|  |--3--|  |--3--|  |--3--|
  E  E  E  E  E  E  E  E  E  E  E  E
--------------------------------------|
--------------------------------------|
--------------------------------------|
--0--0--0--0--0--0--0--2--3--5--3--2--|


  |--3--|  |--3--|  |--3--|  |--3--|
  E  E  E  E  E  E  E  E  E  E  E  E
--------------------------------------|
--------------------------------------|
--2--2--2--2--2--2--2--3--5--3--2--0--|
--------------------------------------|


  W                   H        Q    Q
-------------------|---------------------|
-------------------|---------------------|
--3----------------|-----------5----3----|
-------------------|--3------------------|

ALEJANDRO S. M. LAUYOLA
  |--3--|  |--3--|  |--3--|  |--3--|
  E  E  E  E  E  E  E  E  E  E  E  E
--------------------------------------|
--------------------------------------|
--------------------------------------|
--0--0--0--0--0--0--0--2--3--5--3--2--|


  |--3--|  |--3--|  |--3--|  |--3--|
  E  E  E  E  E  E  E  E  E  E  E  E
--------------------------------------|
--------------------------------------|
--2--2--2--2--2--2--2--3--5--3--2--0--|
--------------------------------------|


  W                   H        Q    Q
-------------------|---------------------|
-------------------|---------------------|
--3----------------|-----------5----3----|
-------------------|--3------------------|


  W                   W
-------------------|-------------------|
-------------------|-------------------|
-------------------|-------------------|
--0----------------|--3----------------|


  W                   H        Q    Q
-------------------|---------------------|
-------------------|---------------------|
--3----------------|--2------------------|
-------------------|-----------3----2----|


  W                   W
-------------------|-------------------|
-------------------|-------------------|
-------------------|--3----------------|
--0----------------|-------------------|


  |--3--|  |--3--|  |--3--|  |--3--|
  E  E  E  E  E  E  E  E  E  E  E  E
--------------------------------------|
--------------------------------------|
--5--5--5--5--5--5--5--5--5--5--5--5--|
--------------------------------------|


  |--3--|  |--3--|  |----3----|
  E  E  E  E  E  E  Q    Q    Q
-----------------------------------|
-----------------------------------|
--5--5--5--5--5--5-----------------|
--------------------5----3----2----|


  Q    Q    Q    Q
----------------------|
----------------------|
----------------------|
--0----0----0----0----|


  Q    Q    Q    Q
----------------------|
----------------------|
----------------------|
--0----0----0----0----|


  Q    Q    Q    Q
----------------------|
----------------------|
----------------------|
--3----3----3----3----|


  Q    Q    Q    Q
----------------------|
----------------------|
----------------------|
--3----3----3----3----|


  Q    Q    Q    Q
----------------------|
----------------------|
--5----5----5----5----|
----------------------|


  Q    Q    Q    Q
----------------------|
----------------------|
--5----5----5----5----|
----------------------|


  Q    Q    Q    Q
----------------------|
----------------------|
--3----3----3----3----|
----------------------|


  Q    Q    Q    Q
----------------------|
----------------------|
--5----5----5----5----|
----------------------|


  Q    Q    Q    Q
----------------------|
----------------------|
----------------------|
--0----0----0----0----|


  Q    Q    Q    Q
----------------------|
----------------------|
----------------------|
--0----0----0----0----|


  Q    Q    Q    Q
----------------------|
----------------------|
----------------------|
--3----3----3----3----|


  Q    Q    Q    Q
----------------------|
----------------------|
----------------------|
--3----3----3----3----|


  Q    Q    Q    Q
----------------------|
----------------------|
--5----5----5----5----|
----------------------|


  Q    Q    Q    Q
----------------------|
----------------------|
--5----5----5----5----|
----------------------|


  Q    Q    Q    Q
----------------------|
----------------------|
--3----3----3----3----|
----------------------|


  Q    Q    Q    Q
----------------------|
----------------------|
--5----5----5----5----|
----------------------|


  Q    Q    Q    Q
----------------------|
----------------------|
--7----7----7----7----|
----------------------|


  Q    Q    Q    Q
----------------------|
----------------------|
--9----9----9----9----|
----------------------|


  Q    Q    Q    Q       W
----------------------|-------------------|
----------------------|-------------------|
--9----9----9----9----|--3----------------|
----------------------|-------------------|


  W
-------------------|
-------------------|
--5----------------|
-------------------|


  |--3--|  |--3--|   |--3--|  |--3--|
  E  E  E  E  E  E   E  E  E  E  E  E
---------------------------------------|
---------------------------------------|
--5--7--7--7--7--7--10--7--7--7--7--7--|
---------------------------------------|


  |--3--|  |--3--|   |--3--|  |--3--|
  E  E  E  E  E  E   E  E  E  E  E  E
---------------------------------------|
---------------------------------------|
--5--7--7--7--7--7--10--7--7--7--7--7--|
---------------------------------------|


  W                   W
-------------------|-------------------|
-------------------|-------------------|
--3----------------|--5----------------|
-------------------|-------------------|


  |--3--|  |--3--|   |--3--|  |--3--|
  E  E  E  E  E  E   E  E  E  E  E  E
---------------------------------------|
---------------------------------------|
--5--7--7--7--7--7--10--7--7--7--7--7--|
---------------------------------------|


  |--3--|  |--3--|   |--3--|  |--3--|
  E  E  E  E  E  E   E  E  E  E  E  E
---------------------------------------|
---------------------------------------|
--5--7--7--7--7--7--10--7--7--7--7--7--|
---------------------------------------|


  W                   W
-------------------|-------------------|
-------------------|-------------------|
--3----------------|--5----------------|
-------------------|-------------------|


  W                   H        H
-------------------|--------------------|
-------------------|--------------------|
--7----------------|--7--------5--------|
-------------------|--------------------|


  W                   W
-------------------|-------------------|
-------------------|-------------------|
--3----------------|--5----------------|
-------------------|-------------------|


  |--3--|  |--3--|  |--3--|  |--3--|
  E  E  E  E  E  E  E  E  E  E  E  E
--------------------------------------|
--------------------------------------|
--2--2--2--2--2--2--2--2--2--2--2--2--|
--------------------------------------|


  |--3--|  |--3--|  |--3--|  |--3--|
  E  E  E  E  E  E  E  E  E  E  E  E
--------------------------------------|
--------------------------------------|
--2--2--2--2--2--2--2--2--2--2--2--2--|
--------------------------------------|


  |--3--|  |--3--|  |--3--|  |--3--|
  E  E  E  E  E  E  E  E  E  E  E  E
--------------------------------------|
--------------------------------------|
--------------------------------------|
--0--0--0--0--0--0--0--2--3--5--3--2--|


  |--3--|  |--3--|  |--3--|  |--3--|
  E  E  E  E  E  E  E  E  E  E  E  E
--------------------------------------|
--------------------------------------|
--2--2--2--2--2--2--2--3--5--3--2--0--|
--------------------------------------|


  W                   H        Q    Q
-------------------|---------------------|
-------------------|---------------------|
--3----------------|-----------5----3----|
-------------------|--3------------------|


  |--3--|  |--3--|  |--3--|  |--3--|
  E  E  E  E  E  E  E  E  E  E  E  E
--------------------------------------|
--------------------------------------|
--------------------------------------|
--0--0--0--0--0--0--0--2--3--5--3--2--|


  |--3--|  |--3--|  |--3--|  |--3--|
  E  E  E  E  E  E  E  E  E  E  E  E
--------------------------------------|
--------------------------------------|
--2--2--2--2--2--2--2--3--5--3--2--0--|
--------------------------------------|
ALEJANDRO S. M. LAUYOLA

  W                   H        Q    Q
-------------------|---------------------|
-------------------|---------------------|
--3----------------|-----------5----3----|
-------------------|--3------------------|


  W                   W
-------------------|-------------------|
-------------------|-------------------|
-------------------|-------------------|
--0----------------|--3----------------|


  W                   H        Q    Q
-------------------|---------------------|
-------------------|---------------------|
--3----------------|--2------------------|
-------------------|-----------3----2----|


  W                   W
-------------------|-------------------|
-------------------|-------------------|
-------------------|--3----------------|
--0----------------|-------------------|


  |--3--|  |--3--|  |--3--|  |--3--|
  E  E  E  E  E  E  E  E  E  E  E  E
--------------------------------------|
--------------------------------------|
--5--5--5--5--5--5--5--5--5--5--5--5--|
--------------------------------------|


  |--3--|  |--3--|  |----3----|
  E  E  E  E  E  E  Q    Q    Q
-----------------------------------|
-----------------------------------|
--5--5--5--5--5--5-----------------|
--------------------5----3----2----|


  Q    Q    Q    Q
----------------------|
----------------------|
----------------------|
--0----0----0----0----|


  Q    Q    Q    Q
----------------------|
----------------------|
----------------------|
--0----0----0----0----|


  Q    Q    Q    Q
----------------------|
----------------------|
----------------------|
--3----3----3----3----|


  Q    Q    Q    Q
----------------------|
----------------------|
----------------------|
--3----3----3----3----|


  Q    Q    Q    Q
----------------------|
----------------------|
--5----5----5----5----|
----------------------|


  Q    Q    Q    Q
----------------------|
----------------------|
--5----5----5----5----|
----------------------|


  Q    Q    Q    Q
----------------------|
----------------------|
--3----3----3----3----|
----------------------|


  Q    Q    Q    Q
----------------------|
----------------------|
--5----5----5----5----|
----------------------|


  Q    Q    Q    Q
----------------------|
----------------------|
----------------------|
--0----0----0----0----|


  Q    Q    Q    Q
----------------------|
----------------------|
----------------------|
--0----0----0----0----|


  Q    Q    Q    Q
----------------------|
----------------------|
----------------------|
--3----3----3----3----|


  Q    Q    Q    Q
----------------------|
----------------------|
----------------------|
--3----3----3----3----|


  Q    Q    Q    Q
----------------------|
----------------------|
--5----5----5----5----|
----------------------|


  Q    Q    Q    Q
----------------------|
----------------------|
--5----5----5----5----|
----------------------|


  Q    Q    Q    Q
----------------------|
----------------------|
--3----3----3----3----|
----------------------|


  Q    Q    Q    Q
----------------------|
----------------------|
--5----5----5----5----|
----------------------|


  Q    Q    Q    Q
----------------------|
----------------------|
--7----7----7----7----|
----------------------|


  Q    Q    Q    Q
----------------------|
----------------------|
--9----9----9----9----|
----------------------|


  Q    Q    Q    Q       W
----------------------|-------------------|
----------------------|-------------------|
--9----9----9----9----|--3----------------|
----------------------|-------------------|


  W
-------------------|
-------------------|
--5----------------|
-------------------|


  |--3--|  |--3--|   |--3--|  |--3--|
  E  E  E  E  E  E   E  E  E  E  E  E
---------------------------------------|
---------------------------------------|
--5--7--7--7--7--7--10--7--7--7--7--7--|
---------------------------------------|


  |--3--|  |--3--|   |--3--|  |--3--|
  E  E  E  E  E  E   E  E  E  E  E  E
---------------------------------------|
---------------------------------------|
--5--7--7--7--7--7--10--7--7--7--7--7--|
---------------------------------------|

ALEJANDRO S. M. LAUYOLA
  W                   W
-------------------|-------------------|
-------------------|-------------------|
--3----------------|--5----------------|
-------------------|-------------------|


  |--3--|  |--3--|   |--3--|  |--3--|
  E  E  E  E  E  E   E  E  E  E  E  E
---------------------------------------|
---------------------------------------|
--5--7--7--7--7--7--10--7--7--7--7--7--|
---------------------------------------|


  |--3--|  |--3--|   |--3--|  |--3--|
  E  E  E  E  E  E   E  E  E  E  E  E
---------------------------------------|
---------------------------------------|
--5--7--7--7--7--7--10--7--7--7--7--7--|
---------------------------------------|


  W                   W
-------------------|-------------------|
-------------------|-------------------|
--3----------------|--5----------------|
-------------------|-------------------|


  W                   H        H
-------------------|--------------------|
-------------------|--------------------|
--7----------------|--7--------5--------|
-------------------|--------------------|


  W                   W
-------------------|-------------------|
-------------------|-------------------|
--3----------------|--5----------------|
-------------------|-------------------|


  |--3--|  |--3--|  |--3--|  |--3--|
  E  E  E  E  E  E  E  E  E  E  E  E
--------------------------------------|
--------------------------------------|
--2--2--2--2--2--2--2--2--2--2--2--2--|
--------------------------------------|


  |--3--|  |--3--|  |--3--|  |--3--|
  E  E  E  E  E  E  E  E  E  E  E  E
--------------------------------------|
--------------------------------------|
--2--2--2--2--2--2--2--2--2--2--2--2--|
--------------------------------------|


  |--3--|  |--3--|  |--3--|  |--3--|
  E  E  E  E  E  E  E  E  E  E  E  E
--------------------------------------|
--------------------------------------|
--------------------------------------|
--0--0--0--0--0--0--0--2--3--5--3--2--|


  |--3--|  |--3--|  |--3--|  |--3--|
  E  E  E  E  E  E  E  E  E  E  E  E
--------------------------------------|
--------------------------------------|
--2--2--2--2--2--2--2--3--5--3--2--0--|
--------------------------------------|


  W                   H        Q    Q
-------------------|---------------------|
-------------------|---------------------|
--3----------------|-----------5----3----|
-------------------|--3------------------|


  |--3--|  |--3--|  |--3--|  |--3--|
  E  E  E  E  E  E  E  E  E  E  E  E
--------------------------------------|
--------------------------------------|
--------------------------------------|
--0--0--0--0--0--0--0--2--3--5--3--2--|


  |--3--|  |--3--|  |--3--|  |--3--|
  E  E  E  E  E  E  E  E  E  E  E  E
--------------------------------------|
--------------------------------------|
--2--2--2--2--2--2--2--3--5--3--2--0--|
--------------------------------------|


  W                   H        Q    Q
-------------------|---------------------|
-------------------|---------------------|
--3----------------|-----------5----3----|
-------------------|--3------------------|


  |--3--|  |--3--|  |--3--|  |--3--|
  E  E  E  E  E  E  E  E  E  E  E  E
--------------------------------------|
--------------------------------------|
--------------------------------------|
--0--0--0--0--0--0--0--2--3--5--3--2--|


  |--3--|  |--3--|  |--3--|  |--3--|
  E  E  E  E  E  E  E  E  E  E  E  E
--------------------------------------|
--------------------------------------|
--2--2--2--2--2--2--2--3--5--3--2--0--|
--------------------------------------|


  W                   H        Q    Q
-------------------|---------------------|
-------------------|---------------------|
--3----------------|-----------5----3----|
-------------------|--3------------------|


  |--3--|  |--3--|  |--3--|  |--3--|
  E  E  E  E  E  E  E  E  E  E  E  E
--------------------------------------|
--------------------------------------|
--------------------------------------|
--0--0--0--0--0--0--0--2--3--5--3--2--|


  |--3--|  |--3--|  |--3--|  |--3--|
  E  E  E  E  E  E  E  E  E  E  E  E
--------------------------------------|
--------------------------------------|
--2--2--2--2--2--2--2--3--5--3--2--0--|
--------------------------------------|


  W                   H        Q    Q
-------------------|---------------------|
-------------------|---------------------|
--3----------------|-----------5----3----|
-------------------|--3------------------|


  W                   W
-------------------|-------------------|
-------------------|-------------------|
-------------------|-------------------|
--0----------------|--3----------------|


  W                   H        Q    Q
-------------------|---------------------|
-------------------|---------------------|
--3----------------|--2------------------|
-------------------|-----------3----2----|


  W                   W
-------------------|-------------------|
-------------------|-------------------|
-------------------|--3----------------|
--0----------------|-------------------|


  |--3--|  |--3--|  |--3--|  |--3--|
  E  E  E  E  E  E  E  E  E  E  E  E
--------------------------------------|
--------------------------------------|
--5--5--5--5--5--5--5--5--5--5--5--5--|
--------------------------------------|


  |--3--|  |--3--|  |----3----|
  E  E  E  E  E  E  Q    Q    Q
-----------------------------------|
-----------------------------------|
--5--5--5--5--5--5-----------------|
--------------------5----3----2----|


  Q    Q    Q    Q
----------------------|
----------------------|
----------------------|
--0----0----0----0----|


  Q    Q    Q    Q
----------------------|
----------------------|
----------------------|
--0----0----0----0----|


  Q    Q    Q    Q
----------------------|
----------------------|
----------------------|
--3----3----3----3----|


  Q    Q    Q    Q
----------------------|
----------------------|
----------------------|
--3----3----3----3----|


  Q    Q    Q    Q
----------------------|
----------------------|
--5----5----5----5----|
----------------------|


  Q    Q    Q    Q
----------------------|
----------------------|
--5----5----5----5----|
----------------------|


  Q    Q    Q    Q
----------------------|
----------------------|
--3----3----3----3----|
----------------------|


  Q    Q    Q    Q
----------------------|
----------------------|
--5----5----5----5----|
----------------------|


  Q    Q    Q    Q
----------------------|
----------------------|
----------------------|
--0----0----0----0----|


  Q    Q    Q    Q
----------------------|
----------------------|
----------------------|
--0----0----0----0----|


  Q    Q    Q    Q
----------------------|
----------------------|
----------------------|
--3----3----3----3----|


  Q    Q    Q    Q
----------------------|
----------------------|
----------------------|
--3----3----3----3----|


  Q    Q    Q    Q
----------------------|
----------------------|
--5----5----5----5----|
----------------------|


  Q    Q    Q    Q
----------------------|
----------------------|
--5----5----5----5----|
----------------------|


  Q    Q    Q    Q
----------------------|
----------------------|
--3----3----3----3----|
----------------------|


  Q    Q    Q    Q
----------------------|
----------------------|
--5----5----5----5----|
----------------------|


  Q    Q    Q    Q
----------------------|
----------------------|
--7----7----7----7----|
----------------------|


  Q    Q    Q    Q
----------------------|
----------------------|
--9----9----9----9----|
----------------------|


  Q    Q    Q    Q       W
----------------------|-------------------|
----------------------|-------------------|
--9----9----9----9----|--3----------------|
----------------------|-------------------|


  W
-------------------|
-------------------|
--5----------------|
-------------------|


  |--3--|  |--3--|   |--3--|  |--3--|
  E  E  E  E  E  E   E  E  E  E  E  E
---------------------------------------|
---------------------------------------|
--5--7--7--7--7--7--10--7--7--7--7--7--|
---------------------------------------|


  |--3--|  |--3--|   |--3--|  |--3--|
  E  E  E  E  E  E   E  E  E  E  E  E
---------------------------------------|
---------------------------------------|
--5--7--7--7--7--7--10--7--7--7--7--7--|
---------------------------------------|


  W                   W
-------------------|-------------------|
-------------------|-------------------|
--3----------------|--5----------------|
-------------------|-------------------|


  |--3--|  |--3--|   |--3--|  |--3--|
  E  E  E  E  E  E   E  E  E  E  E  E
---------------------------------------|
---------------------------------------|
--5--7--7--7--7--7--10--7--7--7--7--7--|
---------------------------------------|


  |--3--|  |--3--|   |--3--|  |--3--|
  E  E  E  E  E  E   E  E  E  E  E  E
---------------------------------------|
---------------------------------------|
--5--7--7--7--7--7--10--7--7--7--7--7--|
---------------------------------------|


  W                   W
-------------------|-------------------|
-------------------|-------------------|
--3----------------|--5----------------|
-------------------|-------------------|


  W                   H        H
-------------------|--------------------|
-------------------|--------------------|
--7----------------|--7--------5--------|
-------------------|--------------------|
ALEJANDRO S. M. LAUYOLA

  W                   W
-------------------|-------------------|
-------------------|-------------------|
--3----------------|--5----------------|
-------------------|-------------------|


  |--3--|  |--3--|  |--3--|  |--3--|
  E  E  E  E  E  E  E  E  E  E  E  E
--------------------------------------|
--------------------------------------|
--2--2--2--2--2--2--2--2--2--2--2--2--|
--------------------------------------|


  |--3--|  |--3--|  |--3--|  |--3--|
  E  E  E  E  E  E  E  E  E  E  E  E
--------------------------------------|
--------------------------------------|
--2--2--2--2--2--2--2--2--2--2--2--2--|
--------------------------------------|


  |--3--|  |--3--|  |--3--|  |--3--|
  E  E  E  E  E  E  E  E  E  E  E  E
--------------------------------------|
--------------------------------------|
--------------------------------------|
--0--0--0--0--0--0--0--2--3--5--3--2--|


  |--3--|  |--3--|  |--3--|  |--3--|
  E  E  E  E  E  E  E  E  E  E  E  E
--------------------------------------|
--------------------------------------|
--2--2--2--2--2--2--2--3--5--3--2--0--|
--------------------------------------|

ALEJANDRO S. M. LAUYOLA
  W                   H        Q    Q
-------------------|---------------------|
-------------------|---------------------|
--3----------------|-----------5----3----|
-------------------|--3------------------|


  |--3--|  |--3--|  |--3--|  |--3--|
  E  E  E  E  E  E  E  E  E  E  E  E
--------------------------------------|
--------------------------------------|
--------------------------------------|
--0--0--0--0--0--0--0--2--3--5--3--2--|


  |--3--|  |--3--|  |--3--|  |--3--|
  E  E  E  E  E  E  E  E  E  E  E  E
--------------------------------------|
--------------------------------------|
--2--2--2--2--2--2--2--3--5--3--2--0--|
--------------------------------------|


  W                   H        Q    Q
-------------------|---------------------|
-------------------|---------------------|
--3----------------|-----------5----3----|
-------------------|--3------------------|


  |--3--|  |--3--|  |--3--|  |--3--|
  E  E  E  E  E  E  E  E  E  E  E  E
--------------------------------------|
--------------------------------------|
--------------------------------------|
--0--0--0--0--0--0--0--2--3--5--3--2--|


  |--3--|  |--3--|  |--3--|  |--3--|
  E  E  E  E  E  E  E  E  E  E  E  E
--------------------------------------|
--------------------------------------|
--2--2--2--2--2--2--2--3--5--3--2--0--|
--------------------------------------|


  W                   H        Q    Q
-------------------|---------------------|
-------------------|---------------------|
--3----------------|-----------5----3----|
-------------------|--3------------------|
ALEJANDRO S. M. LAUYOLA

  |--3--|  |--3--|  |--3--|  |--3--|
  E  E  E  E  E  E  E  E  E  E  E  E
--------------------------------------|
--------------------------------------|
--------------------------------------|
--0--0--0--0--0--0--0--2--3--5--3--2--|


  |--3--|  |--3--|  |--3--|  |--3--|
  E  E  E  E  E  E  E  E  E  E  E  E
--------------------------------------|
--------------------------------------|
--2--2--2--2--2--2--2--3--5--3--2--0--|
--------------------------------------|


  W                   H        Q    Q
-------------------|---------------------|
-------------------|---------------------|
--3----------------|-----------5----3----|
-------------------|--3------------------|


  |--3--|  |--3--|  |--3--|  |--3--|
  E  E  E  E  E  E  E  E  E  E  E  E
--------------------------------------|
--------------------------------------|
--------------------------------------|
--0--0--0--0--0--0--0--2--3--5--3--2--|


  |--3--|  |--3--|  |--3--|  |--3--|
  E  E  E  E  E  E  E  E  E  E  E  E
--------------------------------------|
--------------------------------------|
--2--2--2--2--2--2--2--3--5--3--2--0--|
--------------------------------------|


  |--3--|  |--3--|  |--3--|  |--3--|
  E  E  E  E  E  E  E  E  E  E  E  E
--------------------------------------|
--------------------------------------|
--------------------------------------|
--3--3--3--3--3--3--3--5--7--8--7--5--|


  |--3--|  |--3--|  |--3--|  |--3--|
  E  E  E  E  E  E  E  E  E  E  E  E
--------------------------------------|
--------------------------------------|
--3--3--3--3--3--3--3--5--7--5--3--2--|
--------------------------------------|


  |--3--|  |--3--|  |--3--|  |--3--|
  E  E  E  E  E  E  E  E  E  E  E  E
--------------------------------------|
--------------------------------------|
--2--2--2--2--2--2--2--2--2--2--2--2--|
--------------------------------------|
ALEJANDRO S. M. LAUYOLA

  |--3--|  |--3--|  3      3
  E  E  E  E  E  E  Q.     Q.
----------------------------------|
----------------------------------|
--2--2--2--2--2--2--2------2------|
----------------------------------|


  3
  W.
-------------------|
-------------------|
-------------------|
-------------------|


  3             |---3---|  |---3--|
  H.            E   E   E  E  E   E
---------------14--12--11--9--7------|
---------------------------------10--|
-------------------------------------|
-------------------------------------|


  |---3--|  |--3--|  |--3--|  |-3|
  E  E   E  E  E  E  E  E  E  E  Q
--------------------------------------|
--9--7--------------------------------|
--------10--9--7--5-------------------|
---------------------8--7--5--3--2----|


  W                   W
-------------------|-------------------|
-------------------|-------------------|
-------------------|-------------------|
--L----------------|--0----------------|


  W
-------------------||
-------------------||
-------------------||
--L----------------||




Duration Legend
---------------
W - whole
H - half
Q - quarter
E - 8th
S - 16th
T - 32nd
X - 64th
. - note dotted
|-n-|  - n-tuplets


Tablature Legend
----------------
L - tied note
x - dead note
g - grace note
(n) - ghost note
> - accentuded note
NH - natural harmonic
AH - artificial harmonic
TH - tapped harmonic
SH - semi harmonic
PH - pitch harmonic
h - hammer on
p - pull off
b - bend
br - bendRelease
pb - preBend
pbr - preBendRelease
brb - bendReleaseBend
n/ - tremolo bar dip
n - tremolo bar dive
-/n - tremolo bar Release up
/n - tremolo bar inverted dip
/n - tremolo bar return
-n - tremolo bar Release down
S - shift slide
s - legato slide
/ -  slide into from below or out of upwards
 -  slide into from above or out of downwards
~ - vibrato
W - wide vibrato
tr - trill
TP - tremolo picking
T - tapping
S - slap
P - pop
< - fade in
^ - brush up
v - brush down
Calificar esta versión:
Aviso: Este fichero es trabajo propio de su transcriptor y representa su interpretación personal de la canción. El material contenido en esta página es para exclusivo uso privado, por lo que se prohibe su reproducción o retransmisión, así como su uso para fines comerciales.
Más versiones de Perro Traidor, Saratoga
Perro Traidor
acordes
Perro Traidor
tablatura
Perro Traidor
bajo
Descubre más canciones de Saratoga