Parte De Mi, Saratoga (tablatura)

Autor: Anónimo | 46000 visualizaciones

intro

Eb|------------------------------3p2--------------|
Bb|-----------0------0-------3-------3------------|
Gb|-------------0----------2---2-------2----------|
Db|-------2-------2------0------------------------|
Ab|-----2---2-------------------------------------|
Eb|---0-------------------------------------------|

Eb|-----------0----------------------------------------|
Bb|-------------1---1---------------------------0----0-|
Gb|-------0-------0-------------------------------0----|
Db|-----2---2--------------5-------5--------2-------2--|
Ab|---3------------------5---5---5--------2---2--------|
Eb|--------------------3--------2--------0-------------|


Eb|------------3p2------------------------3--------|
Bb|-------3--------3-------1---1----------3--------|
Gb|-----2---2--------2-----0---2----------0--------|
Db|---0--------------------2---2----------0--------|
Ab|------------------------3---0----------2--------|
Eb|---------------------------------------3--------|

MIm   RE  DO             SOL
Recorrió largo tiempo en su reloj.
MIm   RE  DO             SOL
Peleó para ser lo que es hoy.
MIm   RE  DO             SOL
Luchador, testarudo y cómo no
MIm    RE      DO
cariñoso y tierno como yo.


MIm   RE  DO             SOL
Sin pensar me enseñaba a reaccionar
MIm   RE  DO             SOL
al calor de su lumbre y su voz.
MIm   RE  DO             SOL
Un bastón le ayudaba a caminar,
MIm     RE      DO
pero él era duro como yo.

RE          DO
Y el camino acabó.
RE              DO
Su mirada dulce y gris voló.

MIm   RE DO            SOL
Y su luz se apagó como la llama
MIm   RE  DO           SOL
del candil que hace tiempo ardió.
MIm   RE  DO           SOL
Y su voz susurraba y susurraba
MIm     RE          DO
'liberadme de todo el dolor'.


MIm   RE  DO             SOL
Una vez de pequeño me cantó
MIm   RE  DO             SOL
la canción que de niño aprendió.
MIm   RE  DO             SOL
Carcajadas comenzaron a sonar,
MIm      RE       DO
porque él era alegre como yo.

RE    DO
Y él nos dijo adiós.
RE                 DO
Va a reunirse pronto con su dios.

MIm   RE  DO             SOL
Y su luz se apagó como la llama
MIm   RE  DO             SOL
del candil que hace tiempo ardió.
MIm   RE  DO             SOL
Y su voz susurraba y susurraba
MIm     RE      DO
'liberadme de todo el dolor'.

SOLO!!!!!!!!!!!!!

Eb|---12-10h12---12/14---14/15---17---15---14h15p14---12---|
Bb|--------------------------------------------------------|
Gb|--------------------------------------------------------|
Db|--------------------------------------------------------|
Ab|--------------------------------------------------------|
Eb|--------------------------------------------------------|

Eb|---10---------------------------------------------------|
Bb|------13-12-13--12--10-12---12-13-12-10-12/-------------|
Gb|--------------------------------------------------------|
Db|--------------------------------------------------------|
Ab|--------------------------------------------------------|
Eb|--------------------------------------------------------|

Eb|---------------------------------------------------------|
Bb|-----------------12--------------------------------------|
Gb|----------12-14-----14p12--12-----------12----12-14------|
Db|---12-14-----------------14-------12-14----14------------|
Ab|---------------------------------------------------------|
Eb|---------------------------------------------------------|

Eb|-------12-17-15-17b-----------20^-----20-19-17-19---19b--|
Bb|--12-15--------------15-15-15----------------------------|
Gb|---------------------------------------------------------|
Db|---------------------------------------------------------|
Ab|---------------------------------------------------------|
Eb|---------------------------------------------------------|

Eb|---20-19-17-19-19b--17-19/----13b^---15-17-19p17p15------|
Bb|---------------------------12-----------------------18---|
Gb|---------------------------------------------------------|
Db|---------------------------------------------------------|
Ab|---------------------------------------------------------|
Eb|---------------------------------------------------------|

Eb|--15-------------15----------------10----15-12-----------|
Bb|--------------------12/10----10----------------15-12-----|
Gb|------17^15---12----------12----12----12-----------------|
Db|---------------------------------------------------------|
Ab|---------------------------------------------------------|
Eb|---------------------------------------------------------|

Eb|---------------------------------------------------------|
Bb|-----12----15(mantener nota haciendo un vibrato)---------|
Gb|--14-----------------------------------------------------|
Db|---------------------------------------------------------|
Ab|---------------------------------------------------------|
Eb|---------------------------------------------------------|


RE   DO
Y él nos dijo adiós.
RE                  DO
Va a reunirse pronto con su dios.

MIm   RE  DO             SOL
Y su luz se apagó como la llama
MIm   RE  DO             SOL
del candil que hace tiempo ardió.
MIm   RE  DO             SOL
Y su voz susurraba y susurraba
MIm        RE         DO
'liberadme de todo el dolor'.

MIm   RE  DO             SOL
Y su luz se apagó como la llama
MIm   RE  DO             SOL
del candil que hace tiempo ardió.
MIm   RE  DO             SOL
Y su voz susurraba y susurraba
MIm       RE     DO
'liberadme de todo el dolor'.

MIm       RE     DO
quiero terminar con el dolor
MIm       RE     DO
liberadme de todo el dolor
MIm         RE         MIm
quiero terminar con el dolor


Dedicado para todos los guitarristas que no comparten
sus conocimientos con todos
Cualquier enanoportugal@hotmail.com

ACE!
Calificar esta versión:
Aviso: Este fichero es trabajo propio de su transcriptor y representa su interpretación personal de la canción. El material contenido en esta página es para exclusivo uso privado, por lo que se prohibe su reproducción o retransmisión, así como su uso para fines comerciales.
Más versiones de Parte De Mi, Saratoga
Parte De Mi
acordes
Parte De Mi (ver 2)
acordes
Parte De Mi
tablatura
Descubre más canciones de Saratoga