Maldito Corazón, Saratoga (tablatura)

Autor: Anónimo | 38411 visualizaciones

(Medio tono abajo)
                                 D#


         C
Maldito corazon
         G#
Bebes de mi dolor
             F
Suenias con destruir
         C                A#
Todo lo bueno que hay en mi

...................................................................

Riff1

e::-----------------------------------------------
B::-----------------------------------------------
G::-----------------------------------------------       *3
D::-------8--10------------------8--10------------
A::---10--6--8---6-5h6h5--8--10--6--8-------------
E::---8-------------------6--8--------------------

Otra vez las nubes vienen negras
Derrotando al sol que se apago
Hoy mil pueblos lloran su desdicha

e::-----------------------------------------------
B::-----------------------------------------------
G::-----------------------------------------------       *1
D::----5--7--8------------3--5--7-----------------
A::----3--5--6--6--5h6h5--1--3--5--6--5h6h5-------
E::-----------------------------------------------

Hoy la ciudad blanca enmudecio

Riff1
Hemos suplicado de rodillas
Vimos mutilada nuestra voz
Nadie bailara jamas la danza
La tormenta ahora es huracan

..................................................................

CoRo:

        C
Maldito corazon
         G#
Bebes de mi dolor
             F
Suenias con destruir
         C                A#
Todo lo bueno que hay en mi


          C
Instinto animal
          G#
Dictas la cuenta atras
            F
Calmas tu sed de mal
          C              A#
En el infierno estan, esperaran

................................................................

Riff 1:

Los misiles son las dentelladas
Flores muertas surgen sobre el mar
Mar de arena, llantos y ceniza
Mar de olvido, mar de soledad

Quien bebio del vino mas amargo?
Luego se oculto en la oscuridad
õQue hay detr¡s del loco visionario?
õQue se esconde tras la tempestad?
...................................................................

CoRo:

....................................................................
.
PuEnTe:
e::------------------------------------------------------------------------
B::------------------------------------------------------------------------
G::------------------------------------------------------------------------
D::---------------5--8--7--8--10-------------------------------------------
A::--5--6-6----6--3--6--5--6--8-------5---------------------------------6--
E::--3--4-4----4----------------------3-3-3-3-3-3-3-3-3-3-3-3-3-3-3-3---4--
              (Encaden a tu piel)     Encadenado a tu................. Piel


e::----------------------------------------------------------------------
B::----------------------------------------------------------------------
G::----------------------------------------------------------------------
D::-------5--8--7--8--10-------------------------------------------------
A::----6--3--6--5--6--8---------5------------------------------------6---
E::----4------------------------3-3-3-3-3-3-3-3-3-3-3-3-3-3-3--------4---
         (EL diablo va)          El diablo va te guia...............ra


e::----------------------------------------------------------------------
B::----------------------------------------------------------------------
G::----------------------------------------------------------------------
D::-------5--8--7--8--10-------------------------------------------------
A::----6--3--6--5--6--8---------5--------------------------------6-------
E::----4------------------------3-3-3-3-3-3-3-3-3-3-3-3-3-3-3----4-------
       (Dejale hacer)           Dejale Hacer, el cuida...........ra de ti

e::----------------------------------------------------------------------
B::----------------------------------------------------------------------
G::----------------------------------------------------------------------
D::-------5--7--8--7--8-------10-----3-----------5-----------------------
A::----6--3--5--6--5--6-------8------1-----------3-----------------------
E::----4-----------------------------------------------------------------
                              Realizara tu voluntad
.
........................................................................


SoLo:
         Lo siento por el solo pero tuve tiempo de sacarlo.............

........................................................................

Riff1

Vi brillar banderas victoriosas
Vi re­r al nuevo emperador
Vi llorando angeles sin techo
Vi gritar su desesperacion

Ya no habra jamas mil y una noches
El jard­n secreto se seco
Caen del cielo lagrimas de fuego
Tiembla el suelo Todo termino

.....................................................................
.
CoRo:

.....................................................................

PuEnte:
G G# G#        G# C D# D D# F
               Encadenado a tu..............

......................................................................

CoRo:

......................................................................



                       HEAVY METAL IS THE LAW!!!!

<<<<<<<<<<<<<<<<<<<<<<<<<<<<<<<<<<<<<<<<<<<<<<<<<<<<<<<<<<<<<<<<<>>>>>>>>>

Nota:

Esta Tab, va hasta San Salvador, Ayutuxtepeque, Col Los Robles.......
Aqui esta la Tab, Walter, si queres otra solo escribime a mi correo...
Gracias a Walter por la peticion de esta buena Rola...........


Espero y sigan tocando buen Metal.................................
Cualquier comentario o sugerencia por favor escribanme a mi corrreo
O si necesitan alguna otra tab..................................


                                   darkest111@hotmail.com

                                                         El SaLvAdOr/2006
Calificar esta versión:
Aviso: Este fichero es trabajo propio de su transcriptor y representa su interpretación personal de la canción. El material contenido en esta página es para exclusivo uso privado, por lo que se prohibe su reproducción o retransmisión, así como su uso para fines comerciales.
Más versiones de Maldito Corazón, Saratoga
Maldito Corazón
acordes
Maldito Corazón
tablatura
Descubre más canciones de Saratoga