Las Puertas Del Cielo, Saratoga (bajo)

Autor: Anónimo | 45681 visualizaciones

   Las Puertas Del Cielo

ALEJANDRO LAUYOLA
                                     Saratoga
Niko




      E  S S E  E  E  E  E  E
F#||---------------------------|
C#||---------------------------|
G#||---------------3--2--------|
D#||--0--2-2-3--0--------3--2--|


  E  S S E  E  E  Q.
-------------------------|
-------------------------|
---------------5--4------|
--0--2-2-3--0------------|


  E  S S E  E  E  Q.
-------------------------|
-------------------------|
---------------3--2------|
--0--2-2-3--0------------|


  E  S S E  E  E  E  E  E
---------------------------|
---------------------------|
---------------3--2--------|
--0--2-2-3--0--------3--2--|


  E  S S E  E  E  E  E  E
---------------------------|
---------------------------|
---------------3--2--------|
--0--2-2-3--0--------3--2--|


  E  S S E  E  E  Q.
-------------------------|
-------------------------|
---------------5--4------|
--0--2-2-3--0------------|


  E  S S E  E  E  Q.
-------------------------|
-------------------------|
---------------3--2------|
--0--2-2-3--0------------|


  E  S S E  E  E  E  E  E
---------------------------|
---------------------------|
---------------3--2--------|
--0--2-2-3--0--------3--2--|


  E  E  E  E  E  E  E  E
--------------------------|
--------------------------|
--------------------------|
--0--0--0--0--0--0--0--0--|


  E  E  E  E  E  E  E  E
--------------------------|
--------------------------|
--------------------------|
--0--0--0--0--0--0--0--0--|


  E  E  E  E  E  E  E  E
--------------------------|
--------------------------|
--------------------------|
--0--0--0--0--0--0--0--0--|


  E  E  E  E  E  E  E  E
--------------------------|
--------------------------|
--------------------------|
--0--0--0--0--0--0--0--0--|


   E  S S E  H        E
-------------------------|
-------------------------|
--/3--3-3-3--3--------L--|
-------------------------|

ALEJANDRO LAUYOLA
   E  S S E  H        E
-------------------------|
-------------------------|
--/3--3-3-3--3--------3--|
-------------------------|


   E  S S Q    E  E  E  E
---------------------------|
---------------------------|
--/3--3-3-3----3--0--2--3--|
---------------------------|


   Q    Q    E  E  E  E
-------------------------|
-------------------------|
--/5----3----2--3--2-----|
----------------------2--|


  E  E  E  E  E  E  E  E
--------------------------|
--------------------------|
--------------------------|
--0--0--0--0--0--0--0--0--|


  E  E  E  E  E  E  E  E
--------------------------|
--------------------------|
--------------------------|
--0--0--0--0--0--0--0--0--|


  E  E  E  E  E  E  E  E
--------------------------|
--------------------------|
--------------------------|
--0--0--0--0--0--0--0--0--|


  E  E  E  E  E  E  E  E
--------------------------|
--------------------------|
--------------------------|
--0--0--0--0--0--0--0--0--|


   E  S S E  H        E
-------------------------|
-------------------------|
--/3--3-3-3--3--------L--|
-------------------------|


   E  S S E  H        E
-------------------------|
-------------------------|
--/3--3-3-3--3--------3--|
-------------------------|

ALEJANDRO LAUYOLA
   E  S S Q    E  E  E  E
---------------------------|
---------------------------|
--/3--3-3-3----3--0--2--3--|
---------------------------|


   Q    Q    E  E  E  E
-------------------------|
-------------------------|
--/5----3----2--3--2-----|
----------------------2--|


  S  S S S E  E  E  E  Q
----------------------------|
--2p-0-----------------2----|
-------3-2------------------|
-----------3--0--0--0-------|


  S S S S S S S S S S S S Q
-------------------------------|
-------------------------------|
--3-3-3-3-3-3-3-3-3-3-3-3-3----|
-------------------------------|


  S S S S S S S S S S S S Q
-------------------------------|
-------------------------------|
-------------------------------|
--3-3-3-3-3-3-3-3-3-3-3-3-3----|


  S S S S S S S S S S S S Q
-------------------------------|
-------------------------------|
--5-5-5-5-5-5-5-5-5-5-5-5-5----|
-------------------------------|


  S S S S S S S S Q     Q
-----------------------------|
-----------------------------|
--7-7-7-7-7-7-7-7-9----10----|
-----------------------------|


  S S S S S S S S S S S S Q
--------------------------------|
--------------------------------|
--3-3-3-3-3-3-3-3-3-3-3-3-3S----|
--------------------------------|


   S  S  S  S  S  S  S  S  S  S  S  S  Q
--------------------------------------------|
--------------------------------------------|
--14-14-14-14-14-14-14-14-14-14-14-14-14----|
--------------------------------------------|


  S S S S S S S S S S S S Q
-------------------------------|
-------------------------------|
--3-3-3-3-3-3-3-3-3-3-3-3-3----|
-------------------------------|

ALEJANDRO LAUYOLA
  S S S S S S S S S S S S Q
-------------------------------|
-------------------------------|
-------------------------------|
--3-3-3-3-3-3-3-3-3-3-3-3-3----|


  S S S S S S S S S S S S Q
-------------------------------|
-------------------------------|
--5-5-5-5-5-5-5-5-5-5-5-5-5----|
-------------------------------|


  S S S S S S S S Q     Q
-----------------------------|
-----------------------------|
--7-7-7-7-7-7-7-7-9----10----|
-----------------------------|


  S S S S S S S S S S S S Q
--------------------------------|
--------------------------------|
--3-3-3-3-3-3-3-3-3-3-3-3-3S----|
--------------------------------|

ALEJANDRO LAUYOLA
   S  S  S  S  S  S  S  S  S  S  S  S  Q
--------------------------------------------|
--------------------------------------------|
--14-14-14-14-14-14-14-14-14-14-14-14-14----|
--------------------------------------------|


  E  E  E  E  E  E  E  E
--------------------------|
--------------------------|
--------------------------|
--0--0--0--0--0--0--0--0--|


  E  E  E  E  E  E  E  E
--------------------------|
--------------------------|
--------------------------|
--0--0--0--0--0--0--0--0--|


  E  E  E  E  E  E  E  E
--------------------------|
--------------------------|
--------------------------|
--0--0--0--0--0--0--0--0--|


  E  E  E  E  E  E  E  E
--------------------------|
--------------------------|
--------------------------|
--0--0--0--0--0--0--0--0--|


   E  S S E  H        E
-------------------------|
-------------------------|
--/3--3-3-3--3--------L--|
-------------------------|


   E  S S E  H        E
-------------------------|
-------------------------|
--/3--3-3-3--3--------3--|
-------------------------|


   E  S S Q    E  E  E  E
---------------------------|
---------------------------|
--/3--3-3-3----3--0--2--3--|
---------------------------|


   Q    Q    E  E  E  E
-------------------------|
-------------------------|
--/5----3----2--3--2-----|
----------------------2--|


  E  E  E  E  E  E  E  E
--------------------------|
--------------------------|
--------------------------|
--0--0--0--0--0--0--0--0--|


  E  E  E  E  E  E  E  E
--------------------------|
--------------------------|
--------------------------|
--0--0--0--0--0--0--0--0--|


  E  E  E  E  E  E  E  E
--------------------------|
--------------------------|
--------------------------|
--0--0--0--0--0--0--0--0--|


  E  E  E  E  E  E  E  E
--------------------------|
--------------------------|
--------------------------|
--0--0--0--0--0--0--0--0--|

ALEJANDRO LAUYOLA
   E  S S E  H        E
-------------------------|
-------------------------|
--/3--3-3-3--3--------L--|
-------------------------|


   E  S S E  H        E
-------------------------|
-------------------------|
--/3--3-3-3--3--------3--|
-------------------------|


   E  S S Q    E  E  E  E
---------------------------|
---------------------------|
--/3--3-3-3----3--0--2--3--|
---------------------------|


   Q    Q    E  E  E  E
-------------------------|
-------------------------|
--/5----3----2--3--2-----|
----------------------2--|


  S  S S S E  E  E  E  Q
----------------------------|
--2p-0-----------------2----|
-------3-2------------------|
-----------3--0--0--0-------|


  S S S S S S S S S S S S Q
-------------------------------|
-------------------------------|
--3-3-3-3-3-3-3-3-3-3-3-3-3----|
-------------------------------|


  S S S S S S S S S S S S Q
-------------------------------|
-------------------------------|
-------------------------------|
--3-3-3-3-3-3-3-3-3-3-3-3-3----|


  S S S S S S S S S S S S Q
-------------------------------|
-------------------------------|
--5-5-5-5-5-5-5-5-5-5-5-5-5----|
-------------------------------|


  S S S S S S S S Q     Q
-----------------------------|
-----------------------------|
--7-7-7-7-7-7-7-7-9----10----|
-----------------------------|


  S S S S S S S S S S S S Q
--------------------------------|
--------------------------------|
--3-3-3-3-3-3-3-3-3-3-3-3-3S----|
--------------------------------|


   S  S  S  S  S  S  S  S  S  S  S  S  Q
--------------------------------------------|
--------------------------------------------|
--14-14-14-14-14-14-14-14-14-14-14-14-14----|
--------------------------------------------|


  S S S S S S S S S S S S Q
-------------------------------|
-------------------------------|
--3-3-3-3-3-3-3-3-3-3-3-3-3----|
-------------------------------|


  S S S S S S S S S S S S Q
-------------------------------|
-------------------------------|
-------------------------------|
--3-3-3-3-3-3-3-3-3-3-3-3-3----|


  S S S S S S S S S S S S Q
-------------------------------|
-------------------------------|
--5-5-5-5-5-5-5-5-5-5-5-5-5----|
-------------------------------|


  S S S S S S S S Q     Q
-----------------------------|
-----------------------------|
--7-7-7-7-7-7-7-7-9----10----|
-----------------------------|


  S S S S S S S S S S S S Q
--------------------------------|
--------------------------------|
--3-3-3-3-3-3-3-3-3-3-3-3-3S----|
--------------------------------|


   S  S  S  S  S  S  S  S  S  S  S  S  Q
--------------------------------------------|
--------------------------------------------|
--14-14-14-14-14-14-14-14-14-14-14-14-14----|
--------------------------------------------|


  S S S S S S S S S S S S S S S S
----------------------------------|
----------------------------------|
----------------------------------|
--0-0-2-2-3-3-0-0-2-2-3-3-5-5-5-5-|


  S S S S S S S S S S S S S S S S
----------------------------------|
----------------------------------|
--------------------------2-2-2-2-|
--2-2-3-3-5-5-2-2-3-3-5-5---------|


  S S S S S S S S S S S S S S S S
----------------------------------|
----------------------------------|
----------------------------------|
--0-0-2-2-3-3-0-0-2-2-3-3-5-5-2-2-|


  S S S S S S S S S S S S S S S S
----------------------------------|
----------------------------------|
----------2-2---------2-2-3-3-3-3-|
--3-3-5-5-----3-3-5-5-------------|


  S S S S S S S S S S S S S S S S
----------------------------------|
----------------------------------|
----------------------------------|
--0-0-2-2-3-3-0-0-2-2-3-3-5-5-5-5-|


  S S S S S S S S S S S S S S S S
----------------------------------|
----------------------------------|
--------------------------2-2-2-2-|
--2-2-3-3-5-5-2-2-3-3-5-5---------|


  S S S S S S S S S S S S S S S S
----------------------------------|
----------------------------------|
----------------------------------|
--0-0-2-2-3-3-0-0-2-2-3-3-5-5-2-2-|


  S S S S S S S S S S S S S S S S
----------------------------------|
----------------------------------|
----------2-2---------2-2-3-3-3-3-|
--3-3-5-5-----3-3-5-5-------------|


  S S S S E  S S E  S S E  S S
-------------------------------|
-------------------------------|
-------------------------------|
--0-0-0-0-0------0------0------|


  S S S S E  S S H           H.
--------------------------|---------------|
--------------------------|---------------|
--------------------------|---------------|
--0-0-0-0-0------0--------|--L------------|


  Q.     E  H           Q.     E  H
---------------------|---------------------|
--2------2--2--------|--2------2--2--------|
---------------------|---------------------|
---------------------|---------------------|


  Q.     E  H           Q.     E  H
---------------------|---------------------|
--2------2--2--------|--2------2--2--------|
---------------------|---------------------|
---------------------|---------------------|


  Q.     E  H           Q.     E  H
---------------------|---------------------|
---------------------|---------------------|
--3------3--3--------|--3------3--3--------|
---------------------|---------------------|


  Q.     E  H           Q.     E  H
---------------------|---------------------|
---------------------|---------------------|
--3------3--3--------|--3------3--3--------|
---------------------|---------------------|


  Q.     E  H           Q.     E  H
---------------------|---------------------|
--2------2--2--------|--2------2--2--------|
---------------------|---------------------|
---------------------|---------------------|


  Q.     E  H           Q.     E  H
---------------------|---------------------|
--2------2--2--------|--2------2--2--------|
---------------------|---------------------|
---------------------|---------------------|


  Q.     E  H           Q.     E  H
---------------------|---------------------|
---------------------|---------------------|
--3------3--3--------|--3------3--3--------|
---------------------|---------------------|


  Q.     E  H           Q.     E  H
---------------------|---------------------|
---------------------|---------------------|
--3------3--3--------|--3------3--3--------|
---------------------|---------------------|


  S  S S S E  E  E  E  Q
----------------------------|
--2p-0-----------------2----|
-------3-2------------------|
-----------3--0--0--0-------|


  S S S S S S S S S S S S S S S S
----------------------------------|
----------------------------------|
----------------------------------|
--0-0-0-0-0-0-0-0-0-0-0-0-0-0-0-0-|


  S S S S S S S S S S S S S S S S
----------------------------------|
----------------------------------|
----------------------------------|
--0-0-0-0-0-0-0-0-0-0-0-0-0-0-0-0-|


  S S S S S S S S S S S S S S S S
----------------------------------|
----------------------------------|
----------------------------------|
--0-0-0-0-0-0-0-0-0-0-0-0-0-0-0-0-|


  S S S S S S S S S S S S S S S S
----------------------------------|
----------------------------------|
----------------------------------|
--0-0-0-0-0-0-0-0-0-0-0-0-0-0-0-0-|


  S S S S S S S S S S S S S S S S
----------------------------------|
----------------------------------|
----------------------------------|
--2-2-2-2-2-2-2-2-2-2-2-2-2-2-2-2-|


  S S S S S S S S S S S S S S S S
----------------------------------|
----------------------------------|
----------------------------------|
--2-2-2-2-2-2-2-2-2-2-2-2-2-2-2-2-|


  S S S S S S S S S S S S S S S S
----------------------------------|
----------------------------------|
----------------------------------|
--2-2-2-2-2-2-2-2-2-2-2-2-2-2-2-2-|


  S S S S S S S S S S S S S S S S
----------------------------------|
----------------------------------|
----------------------------------|
--2-2-2-2-2-2-2-2-2-2-2-2-2-2-2-2-|
ALEJANDRO LAUYOLA

  S S S S S S S S S S S S S S S S
----------------------------------|
----------------------------------|
----------------------------------|
--0-0-0-0-0-0-0-0-0-0-0-0-0-0-0-0-|


  S S S S S S S S S S S S S S S S
----------------------------------|
----------------------------------|
----------------------------------|
--0-0-0-0-0-0-0-0-0-0-0-0-0-0-0-0-|


  S S S S S S S S S S S S S S S S
----------------------------------|
----------------------------------|
----------------------------------|
--0-0-0-0-0-0-0-0-0-0-0-0-0-0-0-0-|


  S S S S S S S S S S S S S S S S
----------------------------------|
----------------------------------|
----------------------------------|
--0-0-0-0-0-0-0-0-0-0-0-0-0-0-0-0-|


  S S S S S S S S S S S S S S S S
----------------------------------|
----------------------------------|
----------------------------------|
--2-2-2-2-2-2-2-2-2-2-2-2-2-2-2-2-|


  S S S S S S S S S S S S S S S S
----------------------------------|
----------------------------------|
----------------------------------|
--2-2-2-2-2-2-2-2-2-2-2-2-2-2-2-2-|


  S S S S S S S S S S S S S S S S
----------------------------------|
----------------------------------|
----------------------------------|
--2-2-2-2-2-2-2-2-2-2-2-2-2-2-2-2-|


  S S S S S S S S S S S S S S S S
----------------------------------|
----------------------------------|
----------------------------------|
--2-2-2-2-2-2-2-2-2-2-2-2-2-2-2-2-|


  S  S S S E  E  E  E  Q
----------------------------|
--2p-0-----------------2----|
-------3-2------------------|
-----------3--0--0--0-------|


  S S S S S S S S S S S S Q
-------------------------------|
-------------------------------|
--3-3-3-3-3-3-3-3-3-3-3-3-3----|
-------------------------------|


  S S S S S S S S S S S S Q
-------------------------------|
-------------------------------|
-------------------------------|
--3-3-3-3-3-3-3-3-3-3-3-3-3----|


  S S S S S S S S S S S S Q
-------------------------------|
-------------------------------|
--5-5-5-5-5-5-5-5-5-5-5-5-5----|
-------------------------------|


  S S S S S S S S Q     Q
-----------------------------|
-----------------------------|
--7-7-7-7-7-7-7-7-9----10----|
-----------------------------|


  S S S S S S S S S S S S Q
--------------------------------|
--------------------------------|
--3-3-3-3-3-3-3-3-3-3-3-3-3S----|
--------------------------------|


   S  S  S  S  S  S  S  S  S  S  S  S  Q
--------------------------------------------|
--------------------------------------------|
--14-14-14-14-14-14-14-14-14-14-14-14-14----|
--------------------------------------------|


  S S S S S S S S S S S S Q
-------------------------------|
-------------------------------|
--3-3-3-3-3-3-3-3-3-3-3-3-3----|
-------------------------------|


  S S S S S S S S S S S S Q
-------------------------------|
-------------------------------|
-------------------------------|
--3-3-3-3-3-3-3-3-3-3-3-3-3----|


  S S S S S S S S S S S S Q
-------------------------------|
-------------------------------|
--5-5-5-5-5-5-5-5-5-5-5-5-5----|
-------------------------------|


  S S S S S S S S Q     Q
-----------------------------|
-----------------------------|
--7-7-7-7-7-7-7-7-9----10----|
-----------------------------|


  S S S S S S S S S S S S Q
--------------------------------|
--------------------------------|
--3-3-3-3-3-3-3-3-3-3-3-3-3S----|
--------------------------------|


   S  S  S  S  S  S  S  S  S  S  S  S  Q
--------------------------------------------|
--------------------------------------------|
--14-14-14-14-14-14-14-14-14-14-14-14-14----|
--------------------------------------------|


  S  S S S E  E  E  E  Q
----------------------------|
--2p-0-----------------2----|
-------3-2------------------|
-----------3--0--0--0-------|


  S S S S S S S S S S S S Q
-------------------------------|
-------------------------------|
--3-3-3-3-3-3-3-3-3-3-3-3-3----|
-------------------------------|


  S S S S S S S S S S S S Q
-------------------------------|
-------------------------------|
-------------------------------|
--3-3-3-3-3-3-3-3-3-3-3-3-3----|


  S S S S S S S S S S S S Q
-------------------------------|
-------------------------------|
--5-5-5-5-5-5-5-5-5-5-5-5-5----|
-------------------------------|


  S S S S S S S S Q     Q
-----------------------------|
-----------------------------|
--7-7-7-7-7-7-7-7-9----10----|
-----------------------------|


  S S S S S S S S S S S S Q
--------------------------------|
--------------------------------|
--3-3-3-3-3-3-3-3-3-3-3-3-3S----|
--------------------------------|


   S  S  S  S  S  S  S  S  S  S  S  S  Q
--------------------------------------------|
--------------------------------------------|
--14-14-14-14-14-14-14-14-14-14-14-14-14----|
--------------------------------------------|


  S S S S S S S S S S S S Q
-------------------------------|
-------------------------------|
--3-3-3-3-3-3-3-3-3-3-3-3-3----|
-------------------------------|


  S S S S S S S S S S S S Q
-------------------------------|
-------------------------------|
-------------------------------|
--3-3-3-3-3-3-3-3-3-3-3-3-3----|


  S S S S S S S S S S S S Q
-------------------------------|
-------------------------------|
--5-5-5-5-5-5-5-5-5-5-5-5-5----|
-------------------------------|


  S S S S S S S S Q     Q
-----------------------------|
-----------------------------|
--7-7-7-7-7-7-7-7-9----10----|
-----------------------------|


  S S S S S S S S S S S S Q
--------------------------------|
--------------------------------|
--3-3-3-3-3-3-3-3-3-3-3-3-3S----|
--------------------------------|


   S  S  S  S  S  S  S  S  S  S  S  S  Q
--------------------------------------------|
--------------------------------------------|
--14-14-14-14-14-14-14-14-14-14-14-14-14----|
--------------------------------------------|


  E  S S E  E  E  E  E  E
---------------------------|
---------------------------|
---------------3--2--------|
--0--2-2-3--0--------3--2--|


  E  S S E  E  E  Q.
-------------------------|
-------------------------|
---------------5--4------|
--0--2-2-3--0------------|


  E  S S E  E  E  Q.
-------------------------|
-------------------------|
---------------3--2------|
--0--2-2-3--0------------|


  E  S S E  E  E  E  E  E
---------------------------|
---------------------------|
---------------3--2--------|
--0--2-2-3--0--------3--2--|


  E  S S E  E  E  E  E  E
---------------------------|
---------------------------|
---------------3--2--------|
--0--2-2-3--0--------3--2--|


  E  S S E  E  E  Q.
-------------------------|
-------------------------|
---------------5--4------|
--0--2-2-3--0------------|


  E  S S E  E  E  Q.
-------------------------|
-------------------------|
---------------3--2------|
--0--2-2-3--0------------|


  E  S S E  E  E  E  E  E
---------------------------|
---------------------------|
---------------3--2--------|
--0--2-2-3--0--------3--2--|


  W                   W
-------------------|-------------------|
-------------------|-------------------|
-------------------|-------------------|
--0----------------|--L----------------|
ALEJANDRO LAUYOLA

  W                   W
-------------------|-------------------||
-------------------|-------------------||
-------------------|-------------------||
--L----------------|--L----------------||

ALEJANDRO LAUYOLA


Duration Legend
---------------
W - whole
H - half
Q - quarter
E - 8th
S - 16th
T - 32nd
X - 64th
. - note dotted
|-n-|  - n-tuplets


Tablature Legend
----------------
L - tied note
x - dead note
g - grace note
(n) - ghost note
> - accentuded note
NH - natural harmonic
AH - artificial harmonic
TH - tapped harmonic
SH - semi harmonic
PH - pitch harmonic
h - hammer on
p - pull off
b - bend
br - bendRelease
pb - preBend
pbr - preBendRelease
brb - bendReleaseBend
n/ - tremolo bar dip
n - tremolo bar dive
-/n - tremolo bar Release up
/n - tremolo bar inverted dip
/n - tremolo bar return
-n - tremolo bar Release down
S - shift slide
s - legato slide
/ -  slide into from below or out of upwards
 -  slide into from above or out of downwards
~ - vibrato
W - wide vibrato
tr - trill
TP - tremolo picking
T - tapping
S - slap
P - pop
< - fade in
^ - brush up
v - brush down
Calificar esta versión:
Aviso: Este fichero es trabajo propio de su transcriptor y representa su interpretación personal de la canción. El material contenido en esta página es para exclusivo uso privado, por lo que se prohibe su reproducción o retransmisión, así como su uso para fines comerciales.
Más versiones de Las Puertas Del Cielo, Saratoga
Las Puertas Del Cielo
tablatura
Las Puertas Del Cielo
bajo
Descubre más canciones de Saratoga