En Tu Cuerpo, Saratoga (tablatura)

Autor: Anónimo | 19964 visualizaciones

k onda esta es mi segunda transcripcion
del nuevo disco de saratoga
disfrutenla



0:01 Intro

Eb|-------------|
Bb|---2--3--2---|
Gb|---2--2---2--|
Db|-----------2-|
Ab|-------------|
Eb|-2-----------|


0:03

Eb|-------0----|
Bb|---3----3---|
Gb|---2-----2--|
Db|-0--------0-|
Ab|------------|
Eb|------------|



0:05

Eb|-------------|
Bb|---2--3--2---|
Gb|---2--2---2--|
Db|-2---------2-|
Ab|-------------|
Eb|-------------|



0:08

Eb|-------------|
Bb|---------0---|
Gb|---1--2---1--|
Db|---2--2----2-|
Ab|-2-----------|
Eb|-------------|



0:11

Eb|-------------|
Bb|---2--3--2---|
Gb|---2--2---2--|
Db|-----------2-|
Ab|-------------|
Eb|-2-----------|



0:14


Eb|-------0----|
Bb|---3----3---|
Gb|---2-----2--|
Db|-0--------0-|
Ab|------------|
Eb|------------|



0:17

Eb|-------------|
Bb|---2--3--2---|
Gb|---2--2---2--|
Db|-2---------2-|
Ab|-------------|
Eb|-------------|



0:20

Eb|-------------|
Bb|---------0---|
Gb|---1--2---1--|
Db|---2--2----2-|
Ab|-2-----------|
Eb|-------------|



0:25

Eb|--------------|
Bb|--------2-----|
Gb|----2----2--2-|
Db|---2-2----2---|
Ab|--------------|
Eb|-2------------|

Despertaré


0:28

Eb|-------0----|
Bb|----3---3---|
Gb|---2-2---2--|
Db|-0--------0-|
Ab|------------|
Eb|------------|

en el


0:31

Eb|-------------|
Bb|-------3--2--|
Gb|----2---2--2-|
Db|---2-2-------|
Ab|-0-----------|
Eb|-------------|

diván


0:34

Eb|--------------|
Bb|--------0---0-|
Gb|----1----1----|
Db|---2-2----2---|
Ab|--------------|
Eb|-0------------|

de tus sueños


0:36

Eb|--------------|
Bb|--------2-----|
Gb|----2----2--2-|
Db|---2-2----2---|
Ab|--------------|
Eb|-2------------|

Fugaz


0:39

Eb|-------0----|
Bb|----3---3---|
Gb|---2-2---2--|
Db|-0--------0-|
Ab|------------|
Eb|------------|

Como un


0:42

Eb|-------------|
Bb|-------3--2--|
Gb|----2---2--2-|
Db|---2-2-------|
Ab|-0-----------|
Eb|-------------|

atardecer


0:45

Eb|--------------|
Bb|--------0---0-|
Gb|----1----1----|
Db|---2-2----2---|
Ab|--------------|
Eb|-0------------|


en invierno


0:47

     A            E
Y reír dentro de ti

   F#            D Dsus2
Arropada junto a mí


0:58

     A            E
Destapando el antifaz

   D      Dsus2
De tu cuerpo



1:09

Eb|--------------|
Bb|--------2-----|
Gb|----2----2--2-|
Db|---2-2----2---|
Ab|--------------|
Eb|-2------------|

Besarte


1:11

Eb|-------0----|
Bb|----3---3---|
Gb|---2-2---2--|
Db|-0--------0-|
Ab|------------|
Eb|------------|

es sentir


1:14

Eb|-------------|
Bb|-------3--2--|
Gb|----2---2--2-|
Db|---2-2-------|
Ab|-0-----------|
Eb|-------------|

el calor


1:16

Eb|--------------|
Bb|--------0---0-|
Gb|----1----1----|
Db|---2-2----2---|
Ab|--------------|
Eb|-0------------|


del infierno


1:19

Eb|--------------|
Bb|--------2-----|
Gb|----2----2--2-|
Db|---2-2----2---|
Ab|--------------|
Eb|-2------------|

Miradas


1:22

Eb|-------0----|
Bb|----3---3---|
Gb|---2-2---2--|
Db|-0--------0-|
Ab|------------|
Eb|------------|

cómplices


1:24


Eb|-------------|
Bb|-------3--2--|
Gb|----2---2--2-|
Db|---2-2-------|
Ab|-0-----------|
Eb|-------------|

de nuestro


1:26

Eb|--------------|
Bb|--------0---0-|
Gb|----1----1----|
Db|---2-2----2---|
Ab|--------------|
Eb|-0------------|


juego


1:30

       A            E
Y sentarme junto a ti


    F#            D Dsus2
Y saber que estas ahí


1:40

           A              E
Esta canción te hará sentir

  D  Dsus2
El deseo


1:50

F#          D   A   E
Es la llama de mi corazón

F#           D     A        E
La furia que cabalga en mi interior

F#          D     A       E
Estrella que ilumina mi valor

D     Dsus2
Es tu cuerpo


2:10 Solo

Eb|-------------------------------|
Bb|-------------2-3-5-3-2-------5-|
Gb|-------2-4-5-----------4-2-4---|
Db|-2-3-5-------------------------|
Ab|-------------------------------|
Eb|-------------------------------|


2:13

E|-----------------|
B|-2-3h2-------2---|
G|-------4-2-4-----|
D|---------------2-|
A|-----------------|
E|-----------------|


2:18

Eb|-------------------------------|
Bb|-----------2-3-2h3-------------|
Gb|-----2-4-5---------4-2---2-4-4-|
Db|-3-5-------------------2-------|
Ab|-------------------------------|
Eb|-------------------------------|


2:23 No estoy seguro de que sea asi

Eb|---------------------------2-3-|
Bb|-----------------2-3-5-3-5-----|
Gb|-------2-4-5-4-2---------------|
Db|-2-3-5-------------------------|
Ab|-------------------------------|
Eb|-------------------------------|


2:28

Eb|-14-14-7-9-9-7h9-7---------------|
Bb|-------------------10-9-10-9-7---|
Gb|-------------------------------9-|
Db|---------------------------------|
Ab|---------------------------------|
Eb|---------------------------------|


2:34
       A            E
Y sentarme junto a ti

    F#            D Dsus2
Y saber que estas ahí

2:44


           A              E
Esta canción te hará sentir

  D  Dsus2
El deseo

(Inventen cualquier picking que suene chido)


2:55 sube el tono de la guitarra


Gm    D#     A#   F
Es la llama de mi corazón

Gm       D#        A#      F
La furia que cabalga en mi interior

Gm      D#       A#     F
Estrella que ilumina mi valor

   D#
Es tu cuerpo


3:17

Gm    D#     A#   F
Es la llama de mi corazón (Corazón)

Gm       D#        A#      F
La furia que cabalga en mi interior (Mi interior)

Gm      D#       A#     F
Estrella que ilumina mi valor (Mi Valor)

   D#
Es tu cuerpo (Reina del Deseo)


3:38

Gm    D#     A#   F
Es la llama de mi corazón (Es tu Cuerpo)

Gm       D#        A#      F
La furia que cabalga en mi interior (Mi interior)

Gm      D#       A#     F
Estrella que ilumina mi valor (Mi Valor)

   D#
Es tu cuerpo (Reina del Deseo)


3:59

Gm    D#     A#   F
Es la llama de mi corazón (Corazón)

Gm       D#        A#      F
La furia que cabalga en mi interior (Mi interior)

Gm      D#       A#     F
Estrella que ilumina mi valor (Mi Valor)

   D#
Es tu cuerpo.
Calificar esta versión:
Aviso: Este fichero es trabajo propio de su transcriptor y representa su interpretación personal de la canción. El material contenido en esta página es para exclusivo uso privado, por lo que se prohibe su reproducción o retransmisión, así como su uso para fines comerciales.
Más versiones de En Tu Cuerpo, Saratoga
En Tu Cuerpo
acordes
En Tu Cuerpo
tablatura
Descubre más canciones de Saratoga