Charly Se Fué, Saratoga (tablatura)

Autor: Anónimo | 41052 visualizaciones

en caso de duda ,consulte con su farmacéutico ... o preguntarme a mi.

e-----------------------------------------------------------------------------------
B-----------------------------------------------------------------------------------
G-----------------------------------------------------------------------------------
D---------6-----------------6-----------------6-------------6-----------------------
A------6------6---------6------6---------6-----6--------------6---------------------
E----4----------------6----------------7---------------9-----------9----------------
Antes que malcom y king, que lennon

e-----------------------------------------------------------------------------------
B-----------------------------------------------------------------------------------
G-----------------------------------------------------------------------------------
D------------------7---6---4--------------------------------------------------------
A----------------------------------7---6---4----------4----6---7----6----4----------
E-----4---6---7---------------------------------7------------------------------7----

e-----------------------------------------------------------------------------------
B-----------------------------------------------------------------------------------
G-----------------------------------------------------------------------------------
D----------6-----------------6-----------------6-------------6----------------------
A-------6------6---------6------6---------6-----6--------------6--------------------
E----4----------------6----------------7---------------9-----------9----------------
En Kansas City surgió la estrella.

e-----------------------------------------------------------------------------------
B-----------------------------------------------------------------------------------
G-----------------------------------------------------------------------------------
D------------------7---6---4--------------------------------------------------------
A----------------------------------7---6---4----------4----6---7--------------------
E----4---6---7---------------------------------7------------------------------------

c#  (creo, y arpegiar a tu bola, mas o menos es esto.)
e-----------------------------------------------------------------------------------
B---------------------5-------------------------------------------5-----------------
G------------6-------------6---------------------------6---------------6------------
D---------6-------6--------------6---------------6---------6---------------6--------
A------4-------------------------------4---0-------------------------------------0--
E-----------------------------------------------------------------------------------
no quiso renunciar , su corta ....
sim
e----------------------------------------------2------------------------------------
B--------------------------------3--------------------------------------------------
G-------------------4-----------------------------------x 2-------------------------
D---------------4---------4--------------4------------------------------------------
A-----------2-----------------------------------------------------------------------
E-----------------------------------------------------------------------------------


y se oyo una voz...


Antes que malcom y king, que lennon
En Kansas City surgió la estrella.

No quiso renunciar
Su corta vida fue
Un grito de pasión
Se hizo a sí mismo, ya ves sin miedo
Sutil, implacable y cruel, tan tierno

No pudo asimilar
Su condición de ser
Un negro en el edén

Y se oyó una voz
Lamentos de saxofón
A golpes de un corazón
Que pronto dejo de andar
Un atardecer
De marzo en nueva york
Un trueno rompió la luz
Y charlie se fue con dios.

Sírvele un trago y él tocara mejor
Sus hijos reniegan, él fue su salvación
Si como moisés, marco por donde ir 
el nunca se entero

Y se oyó una voz
Lamentos de saxofón
A golpes de un corazón
Que pronto dejo de andar
Un atardecer
De marzo en nueva york
Un trueno rompió la luz
Y charlie se fue con dios.

Alguna vez lograras, conseguirás
Comunicar con él, se encuentra allí, le puedes sentir
Sonó su mejor canción, es lover man
Perdido en el tiempo tocando con Mozart
                                                       
Y se oyó una voz
Lamentos de saxofón
A golpes de un corazón
Que pronto dejo de andar
Un atardecer
De marzo en nueva york
Un trueno rompió la luz Y charlie se fue con dios
Calificar esta versión:
Aviso: Este fichero es trabajo propio de su transcriptor y representa su interpretación personal de la canción. El material contenido en esta página es para exclusivo uso privado, por lo que se prohibe su reproducción o retransmisión, así como su uso para fines comerciales.
Más versiones de Charly Se Fué, Saratoga
Charly Se Fué
tablatura
Charly Se Fué
bajo
Descubre más canciones de Saratoga