Barman, Sanalejo (tablatura)

Autor: aldair ramirez | 43774 visualizaciones



Intro:


e-10-8-8-12-13-12-10------8----8------------8----8~--8-12-10-8-8-10-8-
b--------------------8-10---10---10~---8-10---10----------------------
g---------------------------------------------------------------------
D---------------------------------------------------------------------
A---------------------------------------------------------------------
E---------------------------------------------------------------------


e-8-12-13-12-10------8----10B----12-10-8-8-10-8------
b---------------8-10---10----------------------------
g----------------------------------------------------
D----------------------------------------------------
A----------------------------------------------------
E----------------------------------------------------





Calificar esta versión:
Aviso: Este fichero es trabajo propio de su transcriptor y representa su interpretación personal de la canción. El material contenido en esta página es para exclusivo uso privado, por lo que se prohibe su reproducción o retransmisión, así como su uso para fines comerciales.
Más versiones de Barman, Sanalejo
Barman
tablatura
Barman (ver 2)
tablatura
Descubre más canciones de Sanalejo