Levanto Mis Manos, Samuel Hernandez (tablatura)

Autor: Anónimo | 17454 visualizaciones

hola que Dios les bendiga,bueno,aqui les va una Buena cancion de Samuel Hernandez,ojala que la 
entiendan y puedan sacar esta Buena cancion que ministra la pre
encia de Jesús

inrto:  G  A  F#m  Bm  Em7  A  D

     G                           A
E-------3----3--------3--------------------------------0
B--3-----3-----3---3---3-------------0h2-0-0h2-0---
G-----0----0-----3--------0--------2-------------------
D----------------------------------2---------------------
A--------------------------------0-----------------------
E--3----------------------------------------------------

  D                           Bm
E-2--------2-0-------5----------------------------------------
B----------3---------------3p2h3--------2h3-------2---2h3-2
G--------2-----------2----------------4--------4------------
D-0-0----------0------------------4----------4------4-------

  Em7                              A                            Dadd9          C   D7
E----------------0------------------2---------5----------5-------0-------5
B---------3--------------3----2-------2--------5---3-------3-------3-------
G------0------0------0----------0-------5--------------2------2-------2----
D----2------2------2-----------------------2-------0------------------------
A-----------------------------0---------0-----------------------------------
E-0-------------------------------------------------------------------------

coro: // G  A  F#m  Bm  Em  A  D//       D/F#

 verso (notas arpegiadas)

coro                       A                  B               E             A
puente para subir a A:    cuando levanto mis manos    cuando levanto mis manos…

B  G#m  C#m  F#m  B  E     D  E7
coro
para terminar:  B  A  E  F#m  B  E

saludos para los chavos de la iglesia centro de amistad en la ceiba ,Honduras, 
y para el payasito murrell hasta buenos aires,Argentina  Dios los bendiga mucho

cualquier duda o comentario no duden en escribirme.tambien tengo tabs  de rojo y marcos witt.bye
2005@  jesusquest
Calificar esta versión:
Aviso: Este fichero es trabajo propio de su transcriptor y representa su interpretación personal de la canción. El material contenido en esta página es para exclusivo uso privado, por lo que se prohibe su reproducción o retransmisión, así como su uso para fines comerciales.
Más versiones de Levanto Mis Manos, Samuel Hernandez
Levanto Mis Manos
acordes
Levanto Mis Manos (ver 2)
acordes
Levanto Mis Manos (ver 3)
acordes
Levanto Mis Manos
tablatura
Descubre más canciones de Samuel Hernandez