Dios Me Dijo Que No, Samuel Hernandez (tablatura)

Autor: Anónimo | 41517 visualizaciones

este es el intro de Dios me dijo que no. despues de la practica
te saldra bien. tienes que practicarlo a tiempo lento primero y
despues cuando lo hayas perfeccionado a la par con la cancion.

e---------------------10-----------8-7--------------------------
b----------8---10h12-----12p10-8-------8------------------------
g---7-7-h9----------------------------------7h9-7---------------
d---------------------------------------------------9p7---------
a---------------------------------------------------------10----
e---------------------------------------------------------------

e------------------------------10--8-7-7p8-7--------------------
b-------------------7-8-10-------------------8------------------
g--------7-7*******--------7-------------------7----------------
d---7h9------------------------------------------9h10p9--------
a------------------------------------------------------10-7-7h9-
e---------------------------------------------------------------

e----------------------------------------------7h8-7------------
b----------7-9-9----------------------------10-------7*********-
g--*pbr9-7-------pbr9-7-----------------------------------------
d-----------------------7---------------------------------------
a--------------------------10-10********------------------------
e---------------------------------------------------------------


h           hammer on
p           pull off
*******     vibra la cuerda hacia arriba y hacia abajo
/           slide up
           slide down
*pbr        pre DObLA LA cuerda medio paso al estraste indicado
            (medio paso es un estraste paso completo son dos
            estrastes )

nota: puedes usar vibrato donde desees al iguar que slides en
lugar de hammer on o pull off

preguntas??? hector1156@sbcglobal.net

por favor si usan esta transcripcion en otra pagina de la web no
olviden darme el credito. Muchas Gracias!!!
Calificar esta versión:
Aviso: Este fichero es trabajo propio de su transcriptor y representa su interpretación personal de la canción. El material contenido en esta página es para exclusivo uso privado, por lo que se prohibe su reproducción o retransmisión, así como su uso para fines comerciales.
Más versiones de Dios Me Dijo Que No, Samuel Hernandez
Dios Me Dijo Que No
acordes
Dios Me Dijo Que No
tablatura
Descubre más canciones de Samuel Hernandez