La Flor, Rulo Y La Contrabanda (tablatura)

Autor: Anónimo | 24053 visualizaciones

Esta transcripción es en base a la versión del video acustico,
grabado en las vías del tren, espero les agrade.
Es sencilla, solo cuestión de escuchar bien los cambios.
Subiré un video a youtube, por si aquí no le encuentran la forma,
se guíen por el video.

 C9m    Em9*   D13m
E--3--  --X--   --X--
B--3--  --X--   --X--
G--0--  --0--   --0--
D--2--  --5--   --4--
A--3--  --7--   --5--
E--X--  --X--   --X--

(intro)
e-----------------------------------------------------------------------------
B--------------------------------------slide-----------------------------------
G--------------2-2-2-2---2-2---------------------------------------------------
D--5--4--2--5--2-2-2-2---2-2--5--4--2--5---7-7--5-7----------------------------
A--7--5--3--2--0-3-3-0---0-0--7--5--3--2---5-5--3-5----------------------------
E----------------------3------------------------------------------------------

  hoy encontré una flor…                           entre asfalto y cristal
e-----------------------------------------------------------------------------
B-----------------------------------------------------------------------------
G------0-----0-----0-----0-----0-----0-----0-----0----0---0-----0---0---------
D----5-----4-----5-----4-----5-----4-----5-----4-----2-2-2-2---4-4-4-4--------
A--7-----5-----7-----5-----7-----5-----7-----5------3---3-----5---5-----------
E-----------------------------------------------------------------------------

                                 mirala bajando el bulevar
e-----------------------------------------------------------------------------
B-----------------------------------------------------------------------------
G------0-----0-----0-----0----0---0-----0---0--------0-----0-----0-----0------
D----5-----4-----5-----4-----2-2-2-2---4-4-4-4-----5-----4-----5-----4--------
A--7-----5-----7-----5------3---3-----5---5------7-----5-----7-----5----------
E-----------------------------------------------------------------------------

 hoy encontré una flor que no entiende…           se llenan de razones..
e-------------------------------------------------------------------------
B-------------------------------------------------------------------------
G-------------------------------------------------------------------------
D--5--5--4---5--5--44---5--5--4---5--5--55---2--2--2---4--4--4------------
A--7--7--5---7--7--55---7--7--5---7--7--77---3--3--3---5--5--5------------
E-------------------------------------------------------------------------
                        sin cuidar sus corazones...
e-------------------------------------------------------------------------
B-------------------------------------------------------------------------
G-------------------------------------------------------------------------
D--5--5--4---5--5--55---2--2--2---4--4--4---5--5--4---5--5--55------------
A--7--7--5---7--7--77---3--3--3---5--5--5---7--7--5---7--7--77------------
E-------------------------------------------------------------------------

dice que en la ciudad…
e------------------------------------------
B------------------------------------------
G------------------------------------------
D--2--2--2---4--4--4---5--5--5---2--2--2---
A--3--3--3---5--5--5---7--7--7---0--0--0---
E------------------------------------------

                   …así quema las horas,
e----------------------------------------------
B----------------------------------------------
G----------------------------------------------
D--2--2--2---4--4--4---5--5--4---5--5--44------
A--3--3--3---5--5--5---7--7--5---7--7--55------
E----------------------------------------------

 dice que entre cemento…                     en la calle alegría
e-------------------------------------------------------------------------
B-------------------------------------------------------------------------
G---------------------------------------------------------0---------------
D--2--2--2---4--4--4---5--5--5---2--2--2---2--2--2---4---4----------------
A--3--3--3---5--5--5---7--7--7---0--0--0---3--3--3---5--5-----------------
E-------------------------------------------------------------------------

(espacio)
e-------------------------------------------------------------------------
B--------------------------------------slide------------------------------
G--------------2-2-2-2---2-2----------------------------------------------
D--5--4--2--5--2-2-2-2---2-2--5--4--2--5---7-7--5-7-7---------------------
A--7--5--3--2--0-3-3-0---0-0--7--5--3--2---5-5--3-5-5---------------------
E----------------------3--------------------------------------------------

hoy encontré una flor…                       mandar todo a la mierda
e-------------------------------------------------------------------------
B-------------------------------------------------------------------------
G-------------------------------------------------------------------------
D--5--5--4---5--5--44---5--5--4---5--5--55---2--2--2---4--4--4------------
A--7--7--5---7--7--55---7--7--5---7--7--77---3--3--3---5--5--5------------
E-------------------------------------------------------------------------

                      …su raíz no encuentra tierra…
e-------------------------------------------------------------------------
B-------------------------------------------------------------------------
G-------------------------------------------------------------------------
D--5--5--4---5--5--55---2--2--2---4--4--4---5--5--4---5--5--55------------
A--7--7--5---7--7--77---3--3--3---5--5--5---7--7--5---7--7--77------------
E-------------------------------------------------------------------------

dice que en la ciudad siempre…
e------------------------------------------
B------------------------------------------
G------------------------------------------
D--2--2--2---4--4--4---5--5--5---2--2--2---
A--3--3--3---5--5--5---7--7--7---0--0--0---
E------------------------------------------

                   …así quema las horas,
e----------------------------------------------
B----------------------------------------------
G----------------------------------------------
D--2--2--2---4--4--4---5--5--4---5--5--44------
A--3--3--3---5--5--5---7--7--5---7--7--55------
E----------------------------------------------

dice que entre cemento…                       en la calle alegría…
e-------------------------------------------------------------------------
B-------------------------------------------------------------------------
G---------------------------------------------------------0---------------
D--2--2--2---4--4--4---5--5--5---2--2--2---2--2--2---4---4----------------
A--3--3--3---5--5--5---7--7--7---0--0--0---3--3--3---5--5-----------------
E-------------------------------------------------------------------------


C9m                  G                        Bm
  Y en los escaparates, detrás de los cristales,
                   Em9*               D13m/C9m
  se burlan de ella las flores artificiales.
                   G                   Bm
  No necesitan aire, tampoco primaveras,
                  Em9*                D13m/C9m
  no necesitan agua, ni nadie que las quiera.
                          G                   Bm
  Entre el humo y el ruido, la tarde se acelera,
                     Em9*              D13m/C9m
  en este mar de gente, es infeliz cualquiera.
                   G                    Bm
  Silbando melodías aunque nadie le oiga,
                   Em9*              D13m/C9m
  soñando tonterías, le pillan las estrellas.


C9m                  G                        Bm
  Y en los escaparates, detrás de los cristales,
                   Em9*               D13m/C9m
  se burlan de ella las flores artificiales.
                   G                   Bm
  No necesitan aire, tampoco primaveras,
                  Em9*                D13m/C9m
  no necesitan agua, ni nadie que las quiera.
                          G                   Bm
  Entre el humo y el ruido, la tarde se acelera,
                     Em9*              D13m/C9m
  en este mar de gente, es infeliz cualquiera.
                   G                    Bm
  Silbando melodías aunque nadie le oiga,
                   Em9*              D13m/C9m
  soñando tonterías, le pillan las estrellas.


(final)

C9m G Bm Em9* D13m C9m


Hasta la vista...
y que nos pillen las estrellas, soñando tonterías.
Calificar esta versión:
Aviso: Este fichero es trabajo propio de su transcriptor y representa su interpretación personal de la canción. El material contenido en esta página es para exclusivo uso privado, por lo que se prohibe su reproducción o retransmisión, así como su uso para fines comerciales.
Más versiones de La Flor, Rulo Y La Contrabanda
La Flor
acordes
La Flor
tablatura
Descubre más canciones de Rulo Y La Contrabanda