Pretty Woman, Roy Orbison (bajo)

Autor: xaira | 36708 visualizaciones



Riff
g|----------|----------|----------|----------|
d|-22--0320-|-22--0320-|-22--0320-|-22--0320-|
a|----2-----|----2-----|----2-----|----2-----|
e|---3------|---3------|---3------|---3------|   

coro
g|------------------|------------------|--------------------------------|
d|--------24--4--4--|--------24--4--4--|--------------------------------|
a|----4--4-----4--4-|----4--4-----4--4-|-5-5---5--57-7--7-7--7-7--7-7---|
e|-5-5--------------|-5-5--------------|----55--------77---77---77---77-|

Riff y repetir coro
g|----------|----------|----------|----------|
d|-22--0320-|-22--0320-|-22--0320-|-22222222-|
a|----2-----|----2-----|----2-----|----------|
e|---3------|---3------|---3------|----------| 
 
estribillo
g|----------------------------------------------------|
d|------75--5---------------------75--5-------5-----5-|
a|-5--58-----85----7--------75--58-----85----7-----7--|
e|-------------8--8--875--58-------------8--8--8--8---|
  Pretty woman stop awhile

g|---------------------------------------------|
d|------75--5---------------------75--5--------|
a|-5--58-----85----7--------75--58-----85----7-|
e|-------------8--8--875--58-------------8--8--|
  Pretty woman yeah, yeah, yeah

3ª parte
g|--------------------------------------|
d|--------------------------------------|
a|----------79--9--975---4-5-7--7---7---|
e|-875--59-9-----9------5--------7---75-|  
Cause I need you,  I'll treat you right

g|----------------------|----------|----------|----------|----------|
d|----------------------|-22--0320-|-22--0320-|-22--0320-|-22--0320-|
a|----979--9--975---4-5-|----2-----|----2-----|----2-----|----2-----|
e|-59-------9------5----|---3------|---3------|---3------|---3------|   
Come with me baby,     be mine tonight..aaa?.aaa  

Coro pasando a mi al final
g|------------------|------------------|
d|--------24--4--4--|--------24--4--4--|
a|----4--4-----4--4-|----4--4-----4--4-|
e|-5-5--------------|-5-5--------------| 

g|--------------------------------------------------------------------|
d|-----------------------------99---99---99---99---99---99---99---99--|
a|-5-5---5--57-7--7-7--7-7--7-7--7-7--7-7--7-7?-7-7--7-7--7-7--7-7--7-|
e|----55--------77---77---77------------------------------------------| 
riff final acaba en La
Es versión de ?Los Potes? de Santiago de Compostela





Calificar esta versión:
Aviso: Este fichero es trabajo propio de su transcriptor y representa su interpretación personal de la canción. El material contenido en esta página es para exclusivo uso privado, por lo que se prohibe su reproducción o retransmisión, así como su uso para fines comerciales.
Más versiones de Pretty Woman, Roy Orbison
Pretty Woman
acordes
Pretty Woman (ver 2)
acordes
Pretty Woman
tablatura
Pretty Woman (ver 2)
tablatura
Pretty Woman
bajo
Descubre más canciones de Roy Orbison