Flojos De Pantalón, Rosendo (tablatura) (ver 2)

Autor: Anónimo | 29876 visualizaciones



solo de flojos de pantalon


E||------------------|----------------------------------|
B||------------------|----------------------------------|
G||------------------|--9~------8--9-11-----------------|
D||------------------|-------------------9-9------------|
A||------------------|-------------------------12---11~-|
E||------------------|----------------------------------|

---------------------------------------------|
---------------------------------------------|
---------------------------------------------|
---------------------------------------------|
----------------11-12p-11----11---11g12--11~-|
----------12-14-----------14-----------------|

-----------------------------------|
-----------------------------------|
-----------11b---11p-9-11b---11p-9-|
-----------------------------------|
-----------------------------------|
-----------------------------------|

-------------------------------------|------------------------12---|
-------------------------------------|--------------9~------9----9-|
--11~-----------9-9g11~--9-9~--8--9h-|--8~---9--11-----------------|
-----------9-11----------------------|-----------------------------|
-------------------------------------|-----------------------------|
-------------------------------------|-----------------------------|

--11g12----12--11--9~------9-11-12-|
---------9-------------------------|
-----------------------------------|
-----------------------------------|
-----------------------------------|
-----------------------------------|

--14br---12-14br--12-14~------12-11--|
-------------------------------------|
-------------------------------------|
-------------------------------------|
-------------------------------------|
-------------------------------------|

--11h-12p-11-9--12~---11h-12p-11-9--------|
------------------------------------12~---|
------------------------------------------|
------------------------------------------|
------------------------------------------|
------------------------------------------|

--------------------------------------------------|
--9~----L------9-9h-10p-9----9h-10p-9----9h-10p-9-|
----------9-11------------11----------11----------|
--------------------------------------------------|
--------------------------------------------------|
--------------------------------------------------|

-----------------------------------------------|
-----9~---------9-9h-10p-9----9h-10p-9---------|
--11-------9-11------------11----------11-9-8~-|
-----------------------------------------------|
-----------------------------------------------|
-----------------------------------------------|

--------------------------------|
--------------------------------|
-----------------------------9h-|
-----------6-7p-6-9p-7-11p-9----|
--------------------------------|
--------------------------------|

---------------------------------------|
---------------------------------------|
--8-11-9-8-----------------------------|
-----------11-9-7-9-9br-7-7p-6-6-7-6---|
-------------------------------------9-|
---------------------------------------|

----------------------------------|
----------------------------------|
----------------------------------|
--6-----------------------6---7-6-|
----7-9-6-7---6-----6-7-9---9-----|
------------9---7-9---------------|

--------------------------------------------|
--------------------------------------------|
--------------------------------------------|
--6h-7p-6---6h-7p-6---6-----------7-6h-7p-6-|
----------9---------9---7-9--7-6------------|
--------------------------------------------|

------------------------------|
------------------------10--9-|
--6----8--6-9--8--11-9--------|
-----9------------------------|
------------------------------|
------------------------------|

------------12-11-12--11-12h-14p-12-11--12h-14h-|
--9~------9-------------------------------------|
------------------------------------------------|
------------------------------------------------|
------------------------------------------------|
------------------------------------------------|

--12-11--12--11--12--14--14br----12-|
------------------------------------|
------------------------------------|
------------------------------------|
------------------------------------|
------------------------------------|

--14~--------11h-12h-14--12-12--L-11h-12p-11-|
---------------------------------------------|
---------------------------------------------|
---------------------------------------------|
---------------------------------------------|
---------------------------------------------|

----------------------------------------------------|
-----14--12--10--9h-10p-9----9-9h-10p-9----9h-10p-9-|
--------------------------11------------11----------|
----------------------------------------------------|
----------------------------------------------------|
----------------------------------------------------|

-----------------------------------------------------------|
-----9h-10p-9----9h-10p-9----9h-10p-9----9~------9h-10h-12-|
--11----------11----------11----------11-------------------|
-----------------------------------------------------------|
-----------------------------------------------------------|
-----------------------------------------------------------|

-------------------------------------------------------|
--10p-9h-10-9----9-------------------------------------|
--------------11---11p-9h-11p-9p-8h-9p-8----8~---------|
-----------------------------------------11------------|
-------------------------------------------------------|
-------------------------------------------------------|

-------------------||
-------------------||
-------------------||
--2----------------||
--2----------------||
--0----------------||


h - hammer on
p - pull off
b - bend
~ - vibrato





Calificar esta versión:
Aviso: Este fichero es trabajo propio de su transcriptor y representa su interpretación personal de la canción. El material contenido en esta página es para exclusivo uso privado, por lo que se prohibe su reproducción o retransmisión, así como su uso para fines comerciales.
Más versiones de Flojos De Pantalón, Rosendo
Flojos De Pantalón
acordes
Flojos De Pantalón
tablatura
Flojos De Pantalón (ver 2)
tablatura
Descubre más canciones de Rosendo