Agradecido, Rosendo (tablatura)

Autor: Anónimo | 24098 visualizaciones

Pedazo de tema de Rosendo que todos habreis oido alguna vez.

Tocarlo en sí no es muy dificil, se trata de un riff que se
repite durante toda la canción, este consiste en tocar dos
cuerdas a la vez la más grave al aire y en la otra jugando
con la quinta, la sexta y la septima.
NOTA: para el ritmo que viene a continuación y que lo vas a
encontrar al cabo de toda la canción, la pua actua de la
siguiente manera(lo marco con 'p' para pua y 'c' para
contrapua).

  p     c  p  c  p  c  p  c  p  c  p  c  p  c  p c
-----------------------------------------------------------
-----------------------------------------------------------
-----------------------------------------------------------
--2-----2--4--2--5--2--4--2--5--2--4--2--5--2--4-2-Z-------
--0-----0--0--0--0--0--0--0--0--0--0--0--0--0--0-0-Z-------
-----------------------------------------------------------

Currate este ritmo si quieres tocar la canción.

La canción tiene una intro de bajo sintetizado en La, da la
quinta de La (La5/E5) 4 veces y haceun cambio la bateria y
empieza...

·INTRO·

 La/A
--------------------------------------------------------
--------------------------------------------------------
--------------------------------------------------------
--2-----2--4--2--5--2--4--2--5--2--4--2--5--2--4-2------ X3
--0-----0--0--0--0--0--0--0--0--0--0--0--0--0--0-0------
--------------------------------------------------------

 La/A
--------------------------------------------------------
--------------------------------------------------------
--------------------------------------------------------
--2-----2--4--2--5--2--4--2--5-4-2--5-4-2-0-------------
--0-----0--0--0--0--0--0--0-----------------------------
--------------------------------------------------------


·ESTROFA·

 La/A
--------------------------------------------------------
--------------------------------------------------------
--------------------------------------------------------
--2-----2--4--2--5--2--4--2--5--2--4--2--5--2--4-2------
--0-----0--0--0--0--0--0--0--0--0--0--0--0--0--0-0------
--------------------------------------------------------

Dejame que pose para tí  ((las últimas sílabas de cada
                      verso empiezan el siguiente riff))

 Re/D
--------------------------------------------------------
--------------------------------------------------------
--2-----2--4--2--5--2--4--2--5--2--4--2--5--2--4-2------
--0-----0--0--0--0--0--0--0--0--0--0--0--0--0--0-0------
--------------------------------------------------------
--------------------------------------------------------

 La/A
--------------------------------------------------------
--------------------------------------------------------
--------------------------------------------------------
--2-----2--4--2--5--2--4--2--5--2--4--2--5--2--4-2------
--0-----0--0--0--0--0--0--0--0--0--0--0--0--0--0-0------
--------------------------------------------------------

Eres tú mi artista preferido

 Re/D
--------------------------------------------------------
--------------------------------------------------------
--2-----2--4--2--5--2--4--2--5--2--4--2--5--2--4-2------
--0-----0--0--0--0--0--0--0--0--0--0--0--0--0--0-0------
--------------------------------------------------------
--------------------------------------------------------

Dejame tenerte junto a mí


 Sol5/G5         Mi5/E5
--------------------------------------------------------
--------------------------------------------------------
--------------------------------------------------------
--5--5--5-5-5----2--2--2-2-2----------------------------
--5--5--5-5-5----2--2--2-2-2----------------------------
--3--3--3-3-3----0--0--0-0-0----------------------------

 Prometo estarte agradecido

 La/A
--------------------------------------------------------
--------------------------------------------------------
--------------------------------------------------------
--2-----2--4--2--5--2--4--2--5--2--4--2--5--2--4-2------
--0-----0--0--0--0--0--0--0--0--0--0--0--0--0--0-0------
--------------------------------------------------------


 Sol5/G5         Mi5/E5
--------------------------------------------------------
--------------------------------------------------------
--------------------------------------------------------
--5--5--5-5-5----2--2--2-2-2----------------------------
--5--5--5-5-5----2--2--2-2-2----------------------------
--3--3--3-3-3----0--0--0-0-0----------------------------

 Prometo estarte agradecido


·PUENTE·

 La/A
--------------------------------------------------------
--------------------------------------------------------
--------------------------------------------------------
--2-----2--4--2--5--2--4--2--5--2--4--2--5--2--4-2------
--0-----0--0--0--0--0--0--0--0--0--0--0--0--0--0-0------
--------------------------------------------------------

 La/A
--------------------------------------------------------
--------------------------------------------------------
--------------------------------------------------------
--2-----2--4--2--5--2--4--2--5-4-2--5-4-2-0-------------
--0-----0--0--0--0--0--0--0-----------------------------
--------------------------------------------------------

Si fuera yo capaz de conseguir
Tenerte alguna vez entretenido
Hacerte por lo menos sonreir
prometo estarte agradecido
prometo estarte agradecido

·PUENTE·

·ESTRIBILLO·

  Fa#/F#
--------------------------------------------------------
--------------------------------------------------------
---------------4--4--4-4-4------------------------------
--4--4--4-4-4--4--4--4-4-4------------------------------
--4--4--4-4-4--2--2--2-2-4------------------------------
--2--2--2-2-2-------------------------------------------

No te lo pienses más

 Sol/G                Re/D
--------------------------------------------------------
--------------------------------------------------------
--------------------------------------------------------
--------------------------4-4--7-7--4-4-----------------
-------2-2--5-5--2-2--5-5-------------------------------
--3-3---------------------------------------------------

Baja la guardía y mira atrás

  Fa#/F#
--------------------------------------------------------
--------------------------------------------------------
---------------4--4--4-4-4------------------------------
--4--4--4-4-4--4--4--4-4-4------------------------------
--4--4--4-4-4--2--2--2-2-4------------------------------
--2--2--2-2-2-------------------------------------------

Nadie te va a alcanzar

  Sol/G           Mi/E
--------------------------------------------------------
--------------------------------------------------------
--------------------------------------------------------
--5--5--5--5--5---2--2--2--2--2-------------------------
--5--5--5--5--5---2--2--2--2--2-------------------------
--3--3--3--3--3---0--0--2--0--0-------------------------

No tienes rival, no tienes rival

Luego se repite un par de veces, el punteo lo dejo a tu
elección, pero iria bien por la pentatónica de La/A.

Por cierto el resto de la letra es esta que lo disfrutes

Me paso el tiempo viendote venir
tu pasas a mi lado distraido
si dejas que camine tras de ti
prometo estarte agradecido
prometo estarte agradecido

te tengo tantas cosas que decir
y tu como si no fuera contigo
la historia se repite y aun asi
prometo estarte agradecido
prometo estarte agradecido
Calificar esta versión:
Aviso: Este fichero es trabajo propio de su transcriptor y representa su interpretación personal de la canción. El material contenido en esta página es para exclusivo uso privado, por lo que se prohibe su reproducción o retransmisión, así como su uso para fines comerciales.
Más versiones de Agradecido, Rosendo
Agradecido
acordes
Agradecido (ver 2)
acordes
Agradecido
tablatura
Descubre más canciones de Rosendo