Contigo, Rosana (tablatura)

Autor: matias_vgf | 31399 visualizaciones

|-0--0-0--2--4--------------------------------------------------|
|---------------4--2--2h4-4--4-4--5--7--2--0--------------------|
|---------------------------------------------------------------|
|---------------------------------------------------------------|
|---------------------------------------------------------------|
|---------------------------------------------------------------|



|--7--7-7--5--4--7---5---5-4------------------------------------|
|----------------------------4---4h5--7--7--4--5----------------|
|---------------------------------------------------------------|
|---------------------------------------------------------------|
|---------------------------------------------------------------|
|---------------------------------------------------------------|

Comentarios del colaborador: esta la saque yo.... By Mat.-

Calificar esta versión:
Aviso: Este fichero es trabajo propio de su transcriptor y representa su interpretación personal de la canción. El material contenido en esta página es para exclusivo uso privado, por lo que se prohibe su reproducción o retransmisión, así como su uso para fines comerciales.
Más versiones de Contigo, Rosana
Contigo
acordes
Contigo
tablatura
Descubre más canciones de Rosana