Yerba Mala, Rodrigo (tablatura)

Autor: Anónimo | 25325 visualizaciones

(para la correcta visualizacion de este documento, usar la fuente 'courier')


(intro del bajo)


Ya llego la música que puede, esa que es de mi córdoba que te mueve.

Ya llego la música que puede, somos la yerba mala que nunca muere.

Ya llego, ya llega, ya llegooo.........

intro con acordeon

E |--------0---1-0--0-1-0--0-1-0--0-1-0----------------------------0------0------0-----0------
B |-----3----------3------3------3------3-----1------------1---3----3-1-3--3-1-3--3-1-3--3-1--
G |--2------------------------------------2-----3--2-3--------------------------------------0-
D |-------------------------------------------------------------------------------------------
A |-------------------------------------------------------------------------------------------
E |-------------------------------------------------------------------------------------------

                                                                                          (Dm)
E |--------------------------------------------------------------------------------345-3-1----
B |----------------------1-----------------------------------------------------------------2--
G |--3-2-0-2---------------3-2-3--------------3-2-0-2----------2-0---0---------------------2--
D |----------------------------------------------------------------4-----------------------3--
A |-----------0--------------------3-1-0-1------------1-0-3-0------------0--------------------
E |-------------3-2--------------------------------------------------------3-2-3--------------


E |--------0---1-0--0-1-0--0-1-0--0-1-0----------------------------0------0------0-----0------
B |-----3----------3------3------3------3-----1------------1---3----3-1-3--3-1-3--3-1-3--3-1--
G |--2------------------------------------2-----3--2-3--------------------------------------0-
D |-------------------------------------------------------------------------------------------
A |-------------------------------------------------------------------------------------------
E |-------------------------------------------------------------------------------------------

                                                                                       (Dm)(?)
E |-----------------------------------------------------------------------------345-3-1-----8-
B |--------------------1----------------------------------------------------------------2---8-
G |-3-2-0-2--------------3-2-3-------------3-2-0-2----------2-0---0---------------------2---6-
D |-------------------------------------------------------------4-----------------------3-----
A |----------0-------------------3-1-0-1-----------1-0-3-0------------0-----------------------
E |------------3-2------------------------------------------------------3-2-3-----------------
Calificar esta versión:
Aviso: Este fichero es trabajo propio de su transcriptor y representa su interpretación personal de la canción. El material contenido en esta página es para exclusivo uso privado, por lo que se prohibe su reproducción o retransmisión, así como su uso para fines comerciales.
Más versiones de Yerba Mala, Rodrigo
Yerba Mala
acordes
Yerba Mala
tablatura
Descubre más canciones de Rodrigo