Y Volo, Volo, Rodrigo (tablatura)

Autor: Anónimo | 24877 visualizaciones

(para la correcta visualizacion de este documento, usar la fuente 'courier')

intro acordeon

                           (D)                         (Bm)
E |----------------------2--2-------------------------2-2-----3-3-3------3-3-3-0-------
B |----3-3-3-------3---3----3----0-3-3-3-0-----3-0-3----3-----------3-0----------0-----
G |--2-------2-------2------2---------------------------4------------------------------
D |------------4---------------------------4-------------------------------------------
A |------------------------------------------------------------------------------------
E |------------------------------------------------------------------------------------


                    
                     (A)                                  (D)                       (Bm)
E |--5-5-5-0-------5-5-5-5------------------------------2--2-----------------------2-2-
B |----------2-----5-5-5-5------------3-3-3-------3---3----3----0-3-3-3-0----3-0-3---3-
G |----------------6-6-6-6----------2-------2-------2------2-------------------------4-
D |----------------7-7-7-7--------------------4---------------------------4------------
A |------------------------------------------------------------------------------------
E |------------------------------------------------------------------------------------




E |---------------------------------------0-0-0-------------------
B |----0-3-3-3-0---------0-3-3-3-0------2-------2-----------------
G |-0------------0----0------------0--2-----------2------2-1-0----
D |------------------------------------------------------------4--
A |---------------------------------------------------------------
E |---------------------------------------------------------------
Calificar esta versión:
Aviso: Este fichero es trabajo propio de su transcriptor y representa su interpretación personal de la canción. El material contenido en esta página es para exclusivo uso privado, por lo que se prohibe su reproducción o retransmisión, así como su uso para fines comerciales.
Más versiones de Y Volo, Volo, Rodrigo
Y Volo, Volo
acordes
Y Volo, Volo
tablatura
Descubre más canciones de Rodrigo