La Mano De Dios, Rodrigo (tablatura)

Autor: Anónimo | 18079 visualizaciones

Lento (arpegiado)

Em               
En una villa nació,
Fue deseo de dios,
                 Am
Crecer y sobrevivir
A una humilde expresión
                     D7
De enfrentar la adversidad
Con afán de ganarse
                 B7
A cada paso la vida.
                Em
En un potrero forjo
Una zurda inmortal
                    Am
Con experiencia sedienta
Ambición de llegar.
                D7
De cebollita soñaba
jugar un mundial
                     G
Y consagrarce en primera.
Am         B7          Em
Tal vez jugando pudiera
C              B7
A su familia ayudar.

PUNTEO:
             Em                              Am            
1----0-2-3-2-0-3----------------------0-2-3-2-0-8------------------ 
2--0--------------------------------0-----------------0-1--1-0-----
3--------------------0--0---------------------------2-----------2--
4----------------2-4------4-2--------------------------------------
5------------------------------------------------------------------
6------------------------------------------------------------------

            D7                                    B7
1--0-5-7-8-7-5--10--------------------------10-10--8--10-8--5-7----
2-------------------------0-1-1-0----------------------------------
3-----------------------2---------2--------------------------------
4------------------------------------------------------------------
5------------------------------------------------------------------
6------------------------------------------------------------------


          Em                           Am                              
1---[14-12-14-12-14-12-14]x2----14--12-----------------------------
2---------------------------------------[13-12-13-12-13]x2---------
3------------------------------------------------------------------
4------------------------------------------------------------------
5------------------------------------------------------------------
6------------------------------------------------------------------

        D7                              B7
1------------------------------------------------------------------
2---13-12-15-13-15-13-15---15-13-15-13-15-----0-1-0---0---0-1-0---0
3---------------------------------------------------3-----------3--
4------------------------------------------------------------------
5------------------------------------------------------------------
6------------------------------------------------------------------

(Vuelve a empezar con ritmo de cuarteto) 
        

              G
A poco que debuto 
Marado, Marado
                      D
la doce fue quien coreo
Marado, Marado
                         C
su sueño tenia una estrella
                      B7
llena de gol y gambetas
                    G
y todo el pueblo canto
Marado, Marado
                   D            
nacía la mano de dios
                         C
sembró alegría en el pueblo
                        Em
lleno de gloria este suelo.


Cargo una cruz en los hombros 
por ser el mejor,
por no venderse jamas
al poder enfrento.
Curiosa debilidad
SI Jesús tropezó,
Porque el no habría de hacerlo.
La fama le presento
Una blanca mujer
De misterioso sabor
Y de prohibido placer,
Que lo hizo adicto al deseo
De usarla otra vez
Involucrando su vida.
Y es un partido que hoy día
El Diego esta por ganar

ESTRIBILLO

ole, ole ole ole, diego, diego

ESTRIBILLO
Calificar esta versión:
Aviso: Este fichero es trabajo propio de su transcriptor y representa su interpretación personal de la canción. El material contenido en esta página es para exclusivo uso privado, por lo que se prohibe su reproducción o retransmisión, así como su uso para fines comerciales.
Más versiones de La Mano De Dios, Rodrigo
La Mano De Dios
acordes
La Mano De Dios
tablatura
Descubre más canciones de Rodrigo