Amor Clasificado, Rodrigo (tablatura)

Autor: Anónimo | 46339 visualizaciones

e: -----------------------------------------------------------------------------------------------------|
B: -----------------------------------------------------------------------------------------------------|
G: -----------------------------------------------------------------------------------------------------|
D: ------9---9---9---9---9------------------------------------------------------------------------------|
A: ------------------------------12--10---12---------12--12--12--12--10--9--10--------10-10--10--10-----|
E:  ----------------------------------------------------------------------------------------------------|

e: -----------------------------------------------------------------------------------------------------|
B: -----------------------------------------------------------------------------------------------------|
G: -----------------------------------------------------------------------------------------------------|
D: -----------------------------------------------------------------------------------------------------|
A: ----------10------------10---9--------------------------10---9------------------------------------9--|
E:  -----12------10----------------12---12---12---12------------12---10---------10---10---10------------|


e: -----------------------------------------------------------------------------------------------------|
B: -----------------------------------------------------------------------------------------------------|
G: -----------------------------------------------------------------------------------------------------|
D: -------------------------9---------------------------------------------------------------------------|
A: --12---10---12----------12-10-12---------------------------------------------------------------------|
E:  ----------------------------------------------------------------------------------------------------|


Asi va la melodia de la parte inicial  y se repite varias veces dentro de la cancion 
aunque creo que con algunas variaciones. 
Kualkier cosa que quieran decirme, hacerlo a  cydmizar@yahoo.com
Calificar esta versión:
Aviso: Este fichero es trabajo propio de su transcriptor y representa su interpretación personal de la canción. El material contenido en esta página es para exclusivo uso privado, por lo que se prohibe su reproducción o retransmisión, así como su uso para fines comerciales.
Más versiones de Amor Clasificado, Rodrigo
Amor Clasificado
acordes
Amor Clasificado
tablatura
Amor Clasificado
teclado
Descubre más canciones de Rodrigo