Más Y Más, Robi Draco Rosa (tablatura)

Autor: Anónimo | 23324 visualizaciones

Esta cancion se afina en standard.

1|-----------------------------------------------|
2|-----------------------------------------------|
3|-----------------------------------------------|
4|-----------------------------------------------|
5|------------5----7-----3--------2--3----5---2--|
6|--0----5~~------------------5------------------|


1|----------------------------------------------|
2|----------------------------------------------|
3|----------------------------------------------|
4|----------------------------------------------|
5|---2h3h2--------------------------------------|
6|-------------5----3---------------------------|


1|-----------------------------------------------|
2|-----------------------------------------------|
3|-----------------------------------------------|
4|-----------------------------------------------|
5|------------5----7----3~--3------2--3---5---2--|
6|--0----5~~-------------------5-----------------|

1|----------------------------------------------|
2|----------------------------------------------|
3|----------------------------------------------|
4|----------------------------------------------|
5|------2h3-3-----------------------------------|
6|----------------------------------------------|


verso:

1|--0---|--0---|--0---|--0---|--8--7------------|
2|--0---|--1---|--1---|--0---|--------7---5---6^|
3|--0---|--0---|--2---|--2---|------------------|
4|--2---|--2---|--3---|--2---|------------------|
5|--2---|--3---|--3---|--0---|------------------|
6|--0---|--3---|------|------|------------------|
(mas..si te acercas un poquito mas me metaras en ti..)



pre coro:

1|--0---|--0---|--0---|--0---|
2|--0---|--1---|--1---|--0---|
3|--0---|--0---|--2---|--2---|
4|--2---|--2---|--3---|--2---|
5|--2---|--3---|--3---|--0---|
6|--0---|--3---|------|------|
(asii....susurrandome tuu...te vienes a miii)


pre coro 2:

1|---0--|--0--|--0---|--0--|
2|---5--|--3--|--1---|--0--|
3|---0--|--0--|--0---|--0--|
4|---6--|--4--|--2---|--1--|
5|---7--|--5--|--3---|--2--|
6|---7--|--5--|--3---|--2--|
( y mi habitacion se llenara de verde agua de mar)




|--0---|--1---|--------------|
|--0---|--0---|--------------|
|--0---|--0---|--------------|
|--2---|--2---|--------------|
|--2---|--3---|-3--2---------|
|--0---|--3---|-------5---3--|
(verdeee que me pierdeeeeee)


coro:
1|--0---|--0---|--0---|--0---|
2|--0---|--1---|--1---|--0---|
3|--0---|--0---|--2---|--2---|
4|--2---|--2---|--3---|--2---|
5|--2---|--3---|--3---|--0---|
6|--0---|--3---|------|------|
(mas y mas si mas te quiero quiereme tu mucho mas
mas y mas dentro de mi tu entraras con mas y mas)
(con mas y mas....)



verso2:

1|--0---|--0---|--0---|--0---|-----------8---7-5|
2|--0---|--1---|--1---|--0---|-------5-5--------|
3|--0---|--0---|--2---|--2---|--7-7-------------|
4|--2---|--2---|--3---|--2---|------------------|
5|--2---|--3---|--3---|--0---|------------------|
6|--0---|--3---|------|------|------------------|
( yo, no se como abrazarme a tus brazos y no sufir)
voy por la vida pidiendo un amor de suicida.

pre coro
coro
pre coro 2
coro x2

fin

espero que les gustes mas y mas... besos a las chicas
Calificar esta versión:
Aviso: Este fichero es trabajo propio de su transcriptor y representa su interpretación personal de la canción. El material contenido en esta página es para exclusivo uso privado, por lo que se prohibe su reproducción o retransmisión, así como su uso para fines comerciales.
Más versiones de Más Y Más, Robi Draco Rosa
Más Y Más
acordes
Más Y Más (ver 2)
acordes
Más Y Más (ver 3)
acordes
Más Y Más
tablatura
Descubre más canciones de Robi Draco Rosa