Blanca Mujer, Robi Draco Rosa (tablatura) (ver 2)

Autor: Anónimo | 26194 visualizaciones

QUE MÁS!!!! ME DI CUENTA QUE LAS OTRAS TRANSCRIPCIONES NO ESTAN
COMPLETAS ENTONCES DECIDÍ ENVIAR ESTA VERSIÓN DEL DVD
DRACO AL NATURAL, ESTÁ 100% CORRECTA, POR QUE SON LOS MISMOS
ACORDES QUE TOCA ROBI....QUE LA DISFRUTEN!!!!!



verso 1:


        New Orleans  a primeros de abril en el noventa y cuatro
e----------------------------------------------------------
b-----------1----------------------------------------------
g--------2--------2-----------2----------------------------
d-----2--------2-----------0--------------2-----------2----
a--0-----------------0--2--------2-----0-----------0-------
E-----------------------------------2--------2--1--------1-

e---------------------------
b----------------------0----
g---------------0---------0-
d-------0-0-0h2-------------
a----2----------------------
E-0-------------------------


        El está condenado a morir    por amar demasiado
e----------------------------------------------------------
b-----------1----------------------------------------------
g--------2--------2-----------2----------------------------
d-----2--------2-----------0--------------2-----------2----
a--0-----------------0--2--------2-----0-----------0-------
E-----------------------------------2--------2--1--------1-

e------------------
b------------------
g---------------0--
d-------0-0-0h2----
a----2-------------
E-0----------------


CORO:

     Cadd9    Gadd9   Am
Si quisieras ahora venir
     G          Dsus4/F#   Em7
y acabar de una vez con mi vida
        Cadd9    Gadd9   Am
yo te lo pido blanca mujer
        G          Dsus4/F#   Em7
que me lleves a tu eterna guarida.

Tengo tantas ganas de ti
pero no puedo llevarte ahora.
Te toca todavia vivir
porque aún no te ha llegado la hora.


(intermedio: se hace el mismo arpegio que se hace en los versos
             mientras la segunda guitarra hace el solo)


solo:

e-------------------------------------------------------
b-------------------------------------------------------
g-----9---------9-7-5-4------4----------------12--11--9-
d---9-----9-------------7--5---7-5----------------------
a-------------------------------------8--7--------------
E-------------------------------------------------------

e---------------------------------------------------
b----------------------------------------------0----
g---9---9------9-7-5-4------4---------------------0-
d-9---9----9-----------7--5---7-5-------------------
a-----------------------------------8--7------------
E---------------------------------------------------



Verso 2:

        Soño una foto virtual de su amor enlutado
e----------------------------------------------------------
b-----------1----------------------------------------------
g--------2--------2-----------2----------------------------
d-----2--------2-----------0--------------2-----------2----
a--0-----------------0--2--------2-----0-----------0-------
E-----------------------------------2--------2--1--------1-

e---------------------------
b----------------------0----
g---------------0---------0-
d-------0-0-0h2-------------
a----2----------------------
E-0-------------------------


        El está condenado a morir por amar demasiado
e----------------------------------------------------------
b-----------1----------------------------------------------
g--------2--------2-----------2----------------------------
d-----2--------2-----------0--------------2-----------2----
a--0-----------------0--2--------2-----0-----------0-------
E-----------------------------------2--------2--1--------1-

e---------------------------
b----------------------0----
g---------------0---------0-
d-------0-0-0h2-------------
a----2----------------------
E-0-------------------------


CORO:

Si quisieras ahora venir
y acabar de una vez con mi vida
yo te lo pido blanca mujer
que me lleves a tu eterna guarida.

Nadie quiere nada de mi
y tu quieres que te quite la vida
pero no soy dueña de mi
solo espero la campana de arriba.

Tengo tantas ganas de ti
pero no puedo llevarte ahora.
Te toca todavia vivir
porque aún no te ha llegado la hora.

(aquí siguen los mismos acordes del coro)

En un día de primeros de abril
hay un hombre esperando a morir.


* ACORDES UTILIZADOS *


 Cadd9     Gadd9      Am       G      Dsus4/F#   Em7

 E--3      E--3      E--0     E--3     E--3      E--0
 B--3      B--3      B--1     B--3     B--3      B--3
 G--0      G--2      G--2     G--0     G--2      G--0
 D--2      D--0      D--2     D--0     D--0      D--2
 A--3      A--2      A--0     A--2     A--0      A--2
 E--x      E--x      E--x     E--3     E--2      E--0
Calificar esta versión:
Aviso: Este fichero es trabajo propio de su transcriptor y representa su interpretación personal de la canción. El material contenido en esta página es para exclusivo uso privado, por lo que se prohibe su reproducción o retransmisión, así como su uso para fines comerciales.
Más versiones de Blanca Mujer, Robi Draco Rosa
Blanca Mujer
acordes
Blanca Mujer (ver 2)
acordes
Blanca Mujer
tablatura
Blanca Mujer (ver 2)
tablatura
Blanca Mujer (ver 3)
tablatura
Descubre más canciones de Robi Draco Rosa