Livin' la vida loca, Ricky Martin (tablatura)

Autor: Anónimo | 39763 visualizaciones



Aquí les pondre como es el solo de guitarra de la canción.
Leyenda:
 = slide down
~ = vibrato
p = pull off
^ = pull

E------0---------------------------------------------------------
B--------0---0---------------------------------------------------
G-24------4-------------------------------------------0---------
D--------------------------------------------------------2~~-----
A-------------------------------------------0--0-0-0p2-----------
E-------------------0--0-0---3-5-0-5^-3-5-3----------------------


E------------------------------------0-0-0-0-0--------0---0-3-----
B------------------------------------3-3-3-3-3--0-3-5---5----3-5~~
G-----------------------------------------------------------------
D-2-0------------------------------2------------------------------
A-----------------------------------------------------------------
E-----3-0-3^--0--0-0---3-5-3-5-3-0--------------------------------

Esta es mi iterpretación que la disfruten.
Volví a escribirla para que sepan mi e-mail y puedan preguntarme o 
sujerirme algo acerca de la canción. Luego con mas tiempo les pongo
LA canción completa.

E-mail:
draco_00794@yahoo.com





Calificar esta versión:
Aviso: Este fichero es trabajo propio de su transcriptor y representa su interpretación personal de la canción. El material contenido en esta página es para exclusivo uso privado, por lo que se prohibe su reproducción o retransmisión, así como su uso para fines comerciales.