Livin La Vida Loca, Ricky Martin (bajo)

Autor: Anónimo | 44610 visualizaciones



Tablatura de bajo
C#m                                                                  
---------------------|-----------------------|
-------------6-5-4-2-|-----------------------|
--4--4---4-4---------|-4-4---4-4------2-3-4--|
-------4-------------|-----4-----4--4--------|

F#m                   G#m                                             
---------------------|-------------------|
---------------------|-------------------|
--2--2----2-2-2------|--4--4----4-4-4----|
-------2--------2----|-------4--------4--|

A				B
---------------------|----------------------|
---------------------|----------------------|
---------------------|----------------------|
-5-5-5-5-5-5-5-5-5-5-|--7-7-7-7-7-7-7-7-7-7-|
  ^                   ^                                               
G#m                   silencio                                       
---------------------|----------------------|------------------------|
---------------------|----------------------|------------------------|
---------------------|----------------------|-4---4---4--2---2--4-4--|
-4-4-4-4-4-4-4-4-4-4-|----------------------|---4---4------2---------|

Solo de Bajo
C#m             B C#m                                                 
---------------|----------------|
---------------|----------------|
-4-4---4-4-4---|-2-2---2--4-4-4-|
-----4-------4-|-----2----------|


---------------4-----|-----------8-6--|
-----------4-6---6-4-|--6--6-6-9------|
--4--4-4-7-----------|----------------|
---------------------|----------------|
      b                                                               


C#m
shes into suprestitons black cats and voodoo dolls
C#m
i feel a premonition that girls gonna make me fall
C#m
shes into new sentsations new kicks in the canle light
C#m
shes gotta new addiction for every day and night
C#m    F#m                                     G#m
shell make you take your clothes off and go dancing in the rain
            A                                  B
shell make you live her crazy life but shell take away your pain
         G#7
like a bullett to your brain

C#m                          B                     C#m
upside inside out shes       linvin la vida      lo-ca
shell push and pull you down livin la vida       lo-ca
her lips are devil red and   her skins the color moc-ha
she will wear you out        livin la vida       lo-ca
C#m  B              C#m
shes livin la vida loca

Solo

C#m
woke up in New York city in a funky cheap hotel
C#m
she took my and and took my money she most have slipped me a sleeping
pill

C#m                          B                     C#m
upside inside out shes       linvin la vida      lo-ca
shell push and pull you down livin la vida       lo-ca
her lips are devil red and   her skins the color moc-ha
she will wear you out        livin la vida       lo-ca
C#m  B              C#m
shes livin la vida loca

C#m    F#m                                     G#m
she never drinks the water makes you order french champane
            A                                  B
once youve have a taste of her youll never be the same 
        G#7
yeah shell make you go insane

C#m                          B                     C#m
upside inside out shes       linvin la vida      lo-ca
shell push and pull you down livin la vida       lo-ca
her lips are devil red and   her skins the color moc-ha
she will wear you out        livin la vida       lo-ca
C#m  B              C#m
shes livin la vida loca
 B             C#m
livin la vida loca
 B             C#m
livin la vida loca

Fuente original: LaCuerda
Colaborador original: Pedro Tello García [[email protected]]





Calificar esta versión:
Aviso: Este fichero es trabajo propio de su transcriptor y representa su interpretación personal de la canción. El material contenido en esta página es para exclusivo uso privado, por lo que se prohibe su reproducción o retransmisión, así como su uso para fines comerciales.
Más versiones de Livin La Vida Loca, Ricky Martin
Livin La Vida Loca
acordes
Livin La Vida Loca
tablatura
Livin La Vida Loca
bajo
Livin La Vida Loca (ver 2)
bajo
Descubre más canciones de Ricky Martin