We Belong Together, Richie Valens (tablatura)

Autor: thenewbeatle | 34460 visualizaciones



para todas las chavas lindas en especial para monica


Intro:

e--------------------------------------------------------------------
B--1h3--3--1---------------------------------------------------------
G--------------2----------0-----------------------0---0---2--0-------
D------------------3---3-----3---0---0---2--3------------------------
A--------------------------------------------------- --------------3-
E--------------------------------------------------------------------



  Your   mine                                      and we belong
e--------------------------------------------------------------------
B--------------------------------------------------------------------
G-----------------------0-------------------------0---0---2--0-------
D------0---2----3----3------3----0---0---2--3------------------------
A---3--------------------------------------------------------------3-
E--------------------------------------------------------------------


      Together                                        Yes we belong
e--------------------------------------------------------------------
B--------------------------------------------------------------------
G-----------------------0-------------------------0---0---2--0-------
D------0---2----3----3------3----0---0---2--3------------------------
A---3--------------------------------------------------------------3-
E--------------------------------------------------------------------


              Together                                   for eter-
e--------------------------------------------------------------------
B--------------------------------------------------------------------
G-----------------------0-------------------------0---0---2--0-------
D------0---2----3----3------3----0---0---2--3------------------------
A---3--------------------------------------------------------------3-
E--------------------------------------------------------------------

    nity
e--------------------------------------------------------------------
B--------------------------------------------------------------------
G-----------------------0-------------------------0---0---2--0-------
D------0---2----3----3------3----0---0---2--3------------------------
A---3--------------------------------------------------------------3-
E--------------------------------------------------------------------


(Mismos tabs)

Your mine
Your lips belong to me
Yes they belong  to  only  me
For eternity.


         Bb      Bbm
    Your my,  my baby
        F
    and you'll always be.

       Bb            Bbm
    I swear by everything I own
           G7                 C
    You'll always,  always be mine




  Your   mine                                      and we belong
e--------------------------------------------------------------------
B--------------------------------------------------------------------
G-----------------------0-------------------------0---0---2--0-------
D------0---2----3----3------3----0---0---2--3------------------------
A---3--------------------------------------------------------------3-
E--------------------------------------------------------------------


      Together                                        Yes we belong
e--------------------------------------------------------------------
B--------------------------------------------------------------------
G-----------------------0-------------------------0---0---2--0-------
D------0---2----3----3------3----0---0---2--3------------------------
A---3--------------------------------------------------------------3-
E--------------------------------------------------------------------


              Together                                   for eter-
e--------------------------------------------------------------------
B--------------------------------------------------------------------
G-----------------------0-------------------------0---0---2--0-------
D------0---2----3----3------3----0---0---2--3------------------------
A---3--------------------------------------------------------------3-
E--------------------------------------------------------------------

    Nity                                       eter?   eternity
e--------------------------------------------------------------------
B--------------------------------------------------------------------
G-----------------------0-------------------------0---0---2--0-------
D------0---2----3----3------3----0---0---2--3------------------------
A---3--------------------------------------------------------------3-
E--------------------------------------------------------------------





Calificar esta versión:
Aviso: Este fichero es trabajo propio de su transcriptor y representa su interpretación personal de la canción. El material contenido en esta página es para exclusivo uso privado, por lo que se prohibe su reproducción o retransmisión, así como su uso para fines comerciales.
Más versiones de We Belong Together, Richie Valens
We Belong Together
acordes
We Belong Together
tablatura
We Belong Together
bajo
Descubre más canciones de Richie Valens