El Poder De Tu Amor, Ricardo Montaner (tablatura) (ver 2)

Autor: Anónimo | 26438 visualizaciones



veo que mis colegas sergio y victor ya lo han escrito 
pero aqui les va la completa completa:

intro:  1|-3---3-3---3-3-1-1----3---3-3---3-3-1-1--|        
        2|--0-0---0-1-------1-1--0-0---0-1---------|         

            C               G
           Tengo que reconocer
                        Am 
          Que me sorprendió el amor

        1|--------2-----|               
        2|----------o---|       
        3|------2-------|       
        4|----1---------| 
        5|--2-----------|

                  F        C
          Me enamoré de sed
                        G
          Y tu eres el agua.

        2|------------0-----|               
        3|------2-------2---|       
        4|----1-----0-------|       
        5|--2-----0---------| 

            C                G
          Desnudo al aire libre
                    Am
          Estaba mi corazón

        2|--3-2-|

                   F     C
          Hablando solito

        2|--3-2-4-|

                      G
          Con su corazón.

*****************************************************************
CORO:   El Poder...        De Tu Amor...
       1|-0-1-3--|        |-0-1-3--|

        Que me lleva a lo profundo como un globo hasta el cielo..
       1|0--1---3-1----1---1--1-0----0---0---0------------------|
       2|-------------------------------------------3---3---3---|

        El Poder...        De Tu Amor...
       1|-0-1-3--|        |-/5-0-3--|

        Me sumerge a las alturas y me corta la respiracion..
       1|0-1--3--1--1----1--1--0-0--0---0-------------------| 
       2|---------------------------------3--3--3--3--------|
       3|--------------------------------------------4--4---|

        Yo te juro, No miento
       1|--------------------|
       2|0--4--2-0--4---2--0-|

        Que tu amor tiene ese poder
       1|---------------------------|
       2|----0---1----3-4--3---1-3--|
       2|-2-------------------------|
*****************************************************************

           C                        G
          Decir que te amo hasta la luna 
                      Am
          Eso no bastará
                        F
          A menos que haya otra luna 
          C          G
          en la eternidad. 

        2|------------0-----|               
        3|------2-------2---|       
        4|----1-----0-------|       
        5|--2-----0---------| 

            C                G                
          Los seres solo son humanos 
                        Am
          si saben justificar ohh
                        F
          que son más humanos
          C         G
          si pueden amar.
          
CORO:

             Am                   
           De nube en nube va el amor
           G                    
          De rama en rama va el amor
           F                   
          De beso en beso va el amor
                G
          A la cama.

CORO:

                      FIN
SI QUIEREN QUE LES SAQUE OTRA CANCION EN PUNTEO 
SOLO MANDENME UN EMAIL.

Fuente original: LaCuerda
Colaborador original: José Christian Gonzaga Chacón [jcgc333@hotmail.com jcgc444@hotmail.com jcgc555@hotmail.com]





Calificar esta versión:
Aviso: Este fichero es trabajo propio de su transcriptor y representa su interpretación personal de la canción. El material contenido en esta página es para exclusivo uso privado, por lo que se prohibe su reproducción o retransmisión, así como su uso para fines comerciales.
Más versiones de El Poder De Tu Amor, Ricardo Montaner
El Poder De Tu Amor
acordes
El Poder De Tu Amor
tablatura
El Poder De Tu Amor (ver 2)
tablatura
Descubre más canciones de Ricardo Montaner