Besame, Ricardo Montaner (tablatura)

Autor: Anónimo | 26603 visualizaciones

*-Diego Armando Avendaño S.-* Da2s

Solo espero que les guste mi  versión de esta canción, si tiene algún error 
hacerme el favor de corregirla o de enviarme un mail.

Para esta canción quedaría bien que al comienzo le hagan un tipo de arpegio bajando, 
suena mucho mejor así, se los aseguro.

-BESAME-
“Ricardo Montaner”

Solo.......................................*
    
E ----5-6-5-----------------------6-5-5-6-5--------------------5-------|
B -----------8-8-6-6-5-6-5-6-8-------------8-8-6-6-5-6-5-6-------------|
G ---------------------------------------------------------------7-----|
D ---------------------------------------------------------------------|
A ---------------------------------------------------------------------|
E ---------------------------------------------------------------------|


 	   Am                            D              G                                 C
******	Bésame la boca con tu lagrima de risa Bésame la luna tapa el sol con el pulgar
		    Am                               B7                         Em
	Bésame el espacio entre mi cuerpo y tu silueta y al mar mas profundo
			     E7
	Bésale con tu humedad

******	Bésame el susurro que me hiciste  en el oído besa el recorrido de mis manos a tu altar
	Con agua bendita de tu fuente bésame toda la frente que me bautiza y me bendice
	Esa manera de besar.



	            A                         C#m    	                G		
 **     Besa mis campos y mis flores pon tus gotitas de colores besa la lluvia
   		          F#m            Bm                   E                      A           F#m
        Que resbala en la ventana besa mi vida y mis cenizas  y me dirás que voy deprisa
                    Bm                                   E7
        Bésame y deja con un grito que lo logre

**    Besa el torrente de ilusiones bésame todas las pasiones besa mi rio hasta su desembocadura
       besa mi vida y mis cenizas tu me dirás que voy de prisa besa mis días y mis noches,
       mis diluvios y mi cielo a pleno sol.


******      Bésame los ojos aun dormido en la mañana bésame la piel con el caudal de tu estrechez
              con agua bendita de tu fuente bésame toda la frente que me bautiza y me bendice 
              esa manera de besar.
**           Besa mis campos y mis flores pon tus gotitas de colores besa la lluvia que resbala en la  
              ventana besa mi vida y mis cenizas y me dirás que voy deprisa bésame y deja con un grito
              que lo logre
**    Besa el torrente de ilusiones bésame todas las pasiones besa mi rio hasta su desembocadura
      besa mi vida y mis cenizas tu me dirás que de
       prisa besa mis días y mis noches,
       mis diluvios y mi cielo a pleno sol.

         

Final......................................................................Donde va solo la guitarra..-*


E -0-------0-1-0---------------------------------------1----0--|
B -1-----1---0-0----3----1--0-1----0----1----3---3-----3-------|
G -2---2-----------2----2----2-2--2----2----2---2-----2--------|
D -2--------------2----2----------2----2----2------------------|
A -0-0- -------------------------------------------------------|
E ------ ------------------------------------------------------|







E --------0-1-0-----------------------------0-5-------|
B ------1---0-0----3----1--0-1----0----1--------------|
G ----2-----------2----2----2-2--2----2---------------|
D ---------------2----2----------2----2-------7-------|
A –0-------------------------------------------0------|
E ----------------------------------------------------|


He utilizado una convención para algunas estrofas, 
esto significa que se repiten las mismas notas

****** : Am D G C Am B7 Em E7
**: A C#m G F#m Bm E A F#m Bm Em E7



|||||||/// ///                   //////////                       
||||||     //////              /////    //////
||||||       //////         /////          /////
||||||     /////          ////   ////////   /////
|||||| /////       *  /////                  //////   **    “da2s”

Fuente original: LaCuerda
Colaborador original: DIEGO ARMANDO AVENDAÑO S. [da2s@uol.com.co]
Calificar esta versión:
Aviso: Este fichero es trabajo propio de su transcriptor y representa su interpretación personal de la canción. El material contenido en esta página es para exclusivo uso privado, por lo que se prohibe su reproducción o retransmisión, así como su uso para fines comerciales.
Más versiones de Besame, Ricardo Montaner
Besame
acordes
Besame (ver 2)
acordes
Besame
tablatura
Besame
teclado
Descubre más canciones de Ricardo Montaner