Tiempo En Una Botella, Ricardo Arjona (tablatura) (ver 3)

Autor: Anonimo | 42124 visualizaciones

Canción : Tiempo en una botella
Autor : Ricardo Arjona 

Transcita por LFPC
LFPC1411@HOTMAIL.COM








Guitarra 1
-------------------------------------------------------------------------------------------------------------
-------------------------------------------------------------------------------------------------------------
--------2-----2------------2-----2------------2-----2------------2-----2------------2-----2------------------
-----3-----3-----3------3-----3-----3------3-----3-----3------3-----3-----3------3-----3-----3---------------
--5------------------4------------------3------------------2------------------1------------------1--0--------
-------------------------------------------------------------------------------------------------------3-----


Guitarra 2

--------10----10-----------9-----9------------8-----8------------9-----9-------------------------------------
-----10----10-----------10----10-----------10----10-----------8-----8------------8--5--6--6/8----6--5--------
-------------------------------------------------------------------------------------------------------------
-------------------------------------------------------------------------------------------------------------
-------------------------------------------------------------------------------------------------------------
-------------------------------------------------------------------------------------------------------------






Guitarra 1                                
                                Estrofa 1
---9-10-12-12--10--9^10^9--||--------------------------------------------------------------------------------
---------------------------||--------------------------------------------------------------------------------
---------------------------||---------2-----2------------2-----2------------2-----2------------2-----2-------
---------------------------||------3-----3-----3------3-----3-----3------3-----3-----3------3-----3-----3----
---7-8--10-10--8---7-------||---5------------------4------------------3------------------2-------------------
---------------------------||--------------------------------------------------------------------------------

                        Si pu - diera          detener         el     tiempo                                y




--------------------------------9-10-12-12--10--9^10^9-------------------------------------------------------
-------------------------------------------------------------------------------------------------------------
---------2-----2--------------------------------------------------2-----2------------2-----2------------2----
------3-----3-----3--------------------------------------------3-----3-----3------3-----3-----3------3-----3-
---1------------------1--0------7--8-10-12--8---7-----------5------------------3------------------1----------
----------------------------3--------------------------------------------------------------------------------

acudir  a  ellos     en  la tris teza                Si el ayer       fuera el hoy        o el    hoy   el 





--------------------------------------------------------------------------0--||------------------------------
----------------------------------3----3------------2-----2---------------2--||------------------------------
-2------------2-----2----------2----2-----2------0-----0-----0---------2-----||------------------------------
----3------3-----3-----3----0---------------------------------------2--------||------------------------------
--------1--------------------------------------------------------0-----------||------------------------------
----------------------------------------------3------------------------------||------------------------------

      a yer           Si pudiera            volverte  a          ver 









Estrofa 2


  Si pudiera una botella guardar tiempos

  y acudir a ellos en la triteza buscaria cada uno 

  de los dias de ayer

  procurando volverte a ver






       Coro
------||---------2-----------0-----------0-----------0-----------2-----------0-----------0------------||-----
------||---------3-----------0-----------3-----------2-----------2-----------2-----------0------------||-----
------||------2-----------2-----------2--------------2-----------0--------3-----------0---------------||-----
------||---0--------------------------------------2-----------0---------------------------------------||-----
------||---------------4-----------2-----------0---------------------------------------------0--2--4--||-----
------||---------------------------------------------------3-----------2-----------0------------------||-----

Y es que estoy aqui buscando en el ayer   lo que no encuentro hoy





  el tiempo en una botella

  para acudir a ella cuando quiera




Estrofa 3




  Buscaria en la botella tu sonrisa

  y tu forma de andar por el mundo  


  Si pudiera una botella

  guardar Tiempos de ayer

  buscaria volverte a ver



Coro

  Y es que estoy aqui

  buscando el ayer

  lo que no encuentro hoy

  el tiempo en una botella

  para acudir a ella cuando quiera.




Final

--------------------------------------------------------------------------5----------------------------------
----5--5--6-----5--6-------5--5--6-----5--6------5--5--6-----5--6---------6----------------------------------
----7--------7--------7----7--------7--------7---7--------7--------7------7----------------------------------
----7----------------------7---------------------7------------------------7----------------------------------
----5----------------------5---------------------5------------------------5----------------------------------
-------------------------------------------------------------------------------------------------------------

Fuente original: LaCuerda
Colaborador original: Luis Felipe Prieto Cano [lfpc1411@hotmail.com]
Aviso: Este fichero es trabajo propio de su transcriptor y representa su interpretación personal de la canción. El material contenido en esta página es para exclusivo uso privado, por lo que se prohibe su reproducción o retransmisión, así como su uso para fines comerciales.

Comentarios en Facebook: