El Problema, Ricardo Arjona (tablatura)

Autor: Anonimo | 23534 visualizaciones

Intro: Guitarra 1
e|-------------------------------0---------------
G|-0h1--0h1-0---------0h1--0h1-0-----------------
B|------------24-2----------------24-4----x----
D|----------------------------------------2---2--
A|-----------------------------------------------
E|-----------------------------------------------

Intro: Guitarra 2
e|------------------------------0----------------
G|----1--------0----------1-------1--------------
B|------2--------0------2---2--------------------
D|--2--------2--------2-------2------------------
A|-0-------2--------0----------------------------
E|-----------------------------------------------

Verso:
e|--------5-----5-----------3-----3--------------
G|----------5-----5-----------0-----0------------
B|-----5------5----------0------0----------------
D|---7-----------------2-------------------------
A|-7-----------------2---------------------------
E|-----------------------------------------------

e|-------1-----1---------------------------------
G|---------1-----1-------------------------------
B|-----------2-----------------------------------
D|-----3-----------------------------------------
A|---3-------------------------------------------
E|-1---------------------------------------------

e|-----------------------------------------------
G|-0h1--0h1-0------------------------------------
B|------------24-2------------------------------
D|-----------------------------------------------
A|-----------------------------------------------
E|-----------------------------------------------

e|--------5-----5-----------3-----3--------------
G|----------5-----5-----------0-----0------------
B|-----5------5----------0------0----------------
D|---7-----------------2-------------------------
A|-7-----------------2---------------------------
E|-----------------------------------------------

e|-------1-----1---------------------------------
G|---------1-----1-------------------------------
B|-----------2-----------------------------------
D|-----3-----------------------------------------
A|---3-------------------------------------------
E|-1---------------------------------------------
 
e|-------------------0---------------------------
G|-0h1--0h1-0------------------------------------
B|------------2----------------------------------
D|---------------2-------------------------------
A|-----------------------------------------------
E|-----------------------------------------------

e|--------0-----0--------------3-----3-----------
G|----------1-----1--------------3-----3---------
B|-----0------0--------------------0-------------
D|---2---------------------0---------------------
A|-3---------------------2-----------------------
E|---------------------3-------------------------

e|-------1-----1-------------0------0--0---------
G|---------1-----1-------------1----0--1---------
B|-----------2------------0---------0--2---------
D|-----3----------------2-----------2--2---------
A|---3----------------3-------------2--0---------
E|-1--------------------------------0--0---------

e|--------0-----0-------------3-----3------------
G|----------1-----2-------------3-----3----------
B|-----2------2-------------------0--------------
D|---2--------------------0----------------------
A|-0--------------------2------------------------
E|--------------------3--------------------------

e|-57/5--3--1------------------------------------
G|-----------1------------------------------------
B|-----------2------------------------------------
D|-----------3------------------------------------
A|-----------3------------------------------------
E|-----------1------------------------------------


e|-----------------------------------------------
G|-0h1--0h1-0------------------------------------
B|-2----2---0--24-2------------------------------
D|-----------------------------------------------
A|-----------------------------------------------
E|-----------------------------------------------

Am                      Em 
el problema no es que jueges ,
 F                   
el problema es que es conmigo .
e|-----------------------------------------------
G|-0h1--0h1-0------------------------------------
B|-2----2---0--24-2------------------------------
D|-----------------------------------------------
A|-----------------------------------------------
E|-----------------------------------------------
Am                       Em 
si me gustaste por ser libre ,
 F                 
quien soy yo para cambiarte . 
e|-------------------0---------------------------
G|-0h1--0h1-0--------1----------------------------
B|------------2------0----------------------------
D|---------------2---2----------------------------
A|-------------------3-----------------------------
E|-------------------0----------------------------
C                      G 
si me quede queriendo solo ,
 F                    
como hacer para obligarte .
e|-----------------0--0----------------------------
G|-----------------0--1----------------------------
B|--------0h2p0----0--2----------------------------
D|-----------------2--2----------------------------
A|-0h3p0-----------2--0----------------------------
E|-----------------0--0----------------------------
  Am                      G 
el problema no es quererte , 
                 F 
es que tu no sientas lo mismo .
e|-------8-----------------------------------------
G|-8b(9)---8-8b(9)(8)p6---6------------------------
B|----------------------8---8b---------------------
D|-------------------------------------------------
A|-------------------------------------------------
E|-------------------------------------------------

CORO 
C                                  G 
Y como deshacerme de ti si no te tengo , 
Em                                  Am 
como alejarme de ti si estas tan lejos .
e|------------1-----------------------------------
G|------------1-----------------------------------
B|------------2-----------------------------------
D|------1--3--3-----------------------------------
A|-1--3-------3-----------------------------------
E|------------1-----------------------------------

 F                                               G 
como encontrarle una pestaña a lo que nunca tuvo ojos.
 C                                               
Como encontrarle plataformas a lo que siempre fue un 
 
barranco. 
C                                              G 
Como encontrar en la cena los besos que no me diste. 
C                                     G 
Y como deshacerme de ti si no te tengo , 
Em                                Am 
como alejarme de ti si estas tan lejos .
e|------------1-----------------------------------
G|------------1-----------------------------------
B|------------2-----------------------------------
D|------1--3--3-----------------------------------
A|-1--3-------3-----------------------------------
E|------------1-----------------------------------
 
F                                 G 
y es que el problema no es cambiarte , 

el problema es que no quiero . 
Guitarra 1
e|-------------------------810/8----------------
G|---8---8b(9)--------------------10--810/8-----
B|-9---9-------7b(8)(7)--------------------------
D|-----------------------------------------------
A|-----------------------------------------------
E|-----------------------------------------------

Guitarra 2
e|-----------------------------------------------
G|-0h1--0h1-0------------------------------------
B|-2----2---0--24-2------------------------------
D|-----------------------------------------------
A|-----------------------------------------------
E|-----------------------------------------------

Verso:

Am                        Em 
el problema no es que duela ,
 F                    
el problema es que me gusta .
e|------------------------------------------------
G|-0h1--0h1-0-------------------------------------
B|-2----2---0------2------------------------------
D|---------------2--------------------------------
A|-------------0----------------------------------
E|------------------------------------------------

 Am                     Em 
el problema no es el daño ,
 F                    
el problema son las huellas .
e|-------------------0---------------------------
G|-0h1--0h1-0--------1----------------------------
B|------------2------0----------------------------
D|---------------2---2----------------------------
A|-------------------3-----------------------------
E|-------------------0----------------------------
 C                          G 
el problema no es lo que haces ,
 F                      C 
el problema es que lo olvido . 
Am                       G   F
 el problema no es que digas , 

 el problema es lo que callas . 

CORO 
C                                  G 
Y como deshacerme de ti si no te tengo , 
Em                                  Am 
como alejarme de ti si estas tan lejos .
e|------------1-----------------------------------
G|------------1-----------------------------------
B|------------2-----------------------------------
D|------1--3--3-----------------------------------
A|-1--3-------3-----------------------------------
E|------------1-----------------------------------
F                        G 
el problema no fue hallarte ,
 G                    C 
el problema es olvidarte .
   C 
el problema no es que mientas , 
  C 
el problema es que te creo . 
  C
 el problema no es cambiarte , 
  C
 el problema es que no quiero . 
  C  
el problema no es quererte  
  C  
es que tu no sientas lo mismo . 
C                           G 
el problema no es que jueges 

el problema es q es conmigo. 

Final:
e|-----------------------------------------------
G|-0h1--0h1-0------------------------------------
B|-2----2---0--24-2------------------------------
D|-----------------------------------------------
A|-----------------------------------------------
E|-----------------------------------------------

e|-----------------0------------------------------
G|-0h1--0h1-0------1------------------------------
B|-2----2-----0----2------------------------------
D|--------------2--2------------------------------
A|-----------------0------------------------------
E|-----------------0------------------------------

Fuente original: LaCuerda
Colaborador original: ulises [ulises_ch3@hotmail.com]
Aviso: Este fichero es trabajo propio de su transcriptor y representa su interpretación personal de la canción. El material contenido en esta página es para exclusivo uso privado, por lo que se prohibe su reproducción o retransmisión, así como su uso para fines comerciales.

Comentarios en Facebook: