Feeling Down, Rey Gordiflón (acordes) (ver 2)

Autor: Gotker | 30854 visualizaciones

bcsosefsosgsos
Feeling Down ? Rey Gordiflon
Intro
E F# G# F# E F# C# B [Bis]
Verso
E C# G# F# E C# G# F# [Bis]
Coro 1
E F# G# F# E F# G# F#
Intro
E F# G# F# E F# C# B [Bis]
Verso
E C# G# F# E C# G# F# [Bis]
Interlude
E F# G# F# E F# G# F#
E F# G# F# E F# G# B
Coro Final
E C# G# F# E C# G# F# [Bis]


Intro

e-------------------------------------------
B-------------------------------------------
G--8-9-8-------8-9-8----8-11--9-8--11-9-8---
D--------9-----------9--------------------9-
A-------------------------------------------
E-------------------------------------------

e-------------------------------------------
B-------------------------------------------
G--8-9-8-------8-9-8------6--7--------------
D--------9-----------9--9------9-8----------
A-------------------------------------------
E------------------------------------------- [Bis]



Interlude

e-------------------------------------------
B-------------------------------------------
G-8---8---6---6---8---8---8-9-8-11----------
D-9---9---8---8---9---9---------------------
A-------------------------------------------
E------------------------------------------- [Bis x3]

e---------------------------------------------
B---------------------------------------------
G-8---8---6---6---8---8---11-11--11-11--11-11-
D-9---9---8---8---9---9---9--9---9--9---9--9--
A---------------------------------------------
E---------------------------------------------

Comentarios del colaborador: Una gran Canción del grupo COLOMBIANO Rey Gordiflon, con vientos en melodias de guitarra y todos los cambios, lo mas completa posible... Por sierto es mi primer cancion subida ojala les guste :)

Calificar esta versión:
Aviso: Este fichero es trabajo propio de su transcriptor y representa su interpretación personal de la canción. El material contenido en esta página es para exclusivo uso privado, por lo que se prohibe su reproducción o retransmisión, así como su uso para fines comerciales.
Más versiones de Feeling Down, Rey Gordiflón
Feeling Down
acordes
Feeling Down (ver 2)
acordes
Descubre más canciones de Rey Gordiflón