El Dorado, Revolver (tablatura)

Autor: Anónimo | 45184 visualizaciones

No se si coincide con todas las versiones de esta
cancion pero por lo menos coincide con la del basico

e |-0-1-0----------0-------0-1-0---------0---------|
B |-------3-1-3--3---3-1---------3-1-3-3---3-1-----|
G |------------------------------------------------|
D |------------------------------------------------|
A |------------------------------------------------|
E |------------------------------------------------|

e |-0-1-0----------0------|
B |-------3-1-3--3---3-1--|
G |-----------------------|
D |-----------------------|
A |-----------------------|
E |-----------------------|

esto se toca solo al final de la cancion junto con lo anterior
e |-1-0------0-3-1-0------|
B |------3-1---------3-1--|
G |-----------------------|
D |-----------------------|
A |-----------------------|
E |-----------------------|


Este trozo es el del solo instrumental

e |-------0-3--1-0-1-0-1-3-1-0---------------0-----|
B |-1-1-3----------------------1-1-1-3-1-1-3---3---|
G |------------------------------------------------|
D |------------------------------------------------|
A |------------------------------------------------|
E |------------------------------------------------|

e |-0----------|
B |---3-2-2----|
G |------------|
D |------------|
A |------------|
E |------------|
Calificar esta versión:
Aviso: Este fichero es trabajo propio de su transcriptor y representa su interpretación personal de la canción. El material contenido en esta página es para exclusivo uso privado, por lo que se prohibe su reproducción o retransmisión, así como su uso para fines comerciales.
Más versiones de El Dorado, Revolver
El Dorado
acordes
El Dorado
tablatura
El Dorado
armonica
Descubre más canciones de Revolver