Te Fuiste De Aquí, Reik (tablatura)

Autor: Anónimo | 42058 visualizaciones

29/Julio/2013/Lunes/3:16pm

Para los amantes de los Tabs
aqui les dejo la versión de Bibi,

La verdad fue muy costoso sacar esta versión...


           ¡Son los Acordes más precisos!
               ((Click en Calidad))


Intro:

El tono de la segunda guitarra esta en F,
pon el capo en el 1er traste.
Si tu guitarra esta en Eb, pon el capo en el 2do traste

      D      C      G    D          Bm     C          G     Gm
1|--0-2------0------x----x----|------2----------0------------x----
2|-3----3------3-0--x----3----|----3---3------1---1---0------x----
3|-2--------------0-0----2----|--4---------0----------0------3----
4|-0----------------0----0----|--4---------2----------0------5----
5|-----------3------2---------|--2---------3----------2------5----
6|------------------3---------|-----------------------3------3----


1|------------------------------------------------------
2|------------------------------------------------------
3|------5---5-7--7/9--5-3-5--5/7--3--2-1----------------
4|--5h7---7---------------------------------------------
5|------------------------------------------------------
6|------------------------------------------------------

--Versos--
Te fuiste de aquí sin pensarlo
Dijiste que no me amabas más
Yo te supliqué quédate aquí
Yo no sé que haría sin tí,
no creo soportarlo...
1|--------------------------------------------------
2|--------------------------------------------------
3|------------5---5--7/4----------------------------
4|--------------5-----------------------------------
5|--------------------------------------------------
6|--------------------------------------------------

Te fuiste de aquí,
todo ha acabado                y llora mi alma en soledad
1|-------------------------------------------------------
2|--------5h6h5-----8------------------------------------
3|--------------5/7---7/9------------9h10/7----------7/5-
4|-------------------------------------------------------
5|-------------------------------------------------------
6|-------------------------------------------------------

Y llora mi alma en soledad
La vida me puso junto a ti
Nunca pude predecir,
 me convertiría en tu pasado...
1|------------------------------------------------------
2|-------------------6---8h6----------------------------
3|-----------------7---7-----5--5/7--7/9--9/7-----------
4|------------------------------------------------------
5|------------------------------------------------------
6|------------------------------------------------------

--Coro--
Te fuiste de aquí encontraste otra vida te fuiste de aquí
1|-0---0-----------------------------------------------
2|---1----------3-----------------------1------1--0----
3|-------------------------------------------2---------
4|---------3/5-----------------------------2-----------
5|-----------------------------------------------------
6|-----------------------------------------------------

enterraste la mía
Aunque no estés yo sigo respirando aquel amor...
1|------------------------------------------------------
2|-------------1---1---------------------1--1------1--3-
3|-------------------------------------0---------0------
4|---------------2---2h3-2-----------2---------2--------
5|------------------------------------------------------
6|------------------------------------------------------

Te fuiste de aquí descubriste otros brazos
1|-0--0-------------------------------------------------
2|--------------3-----------------------1------1--0-----
3|-------------------------------------------2----------
4|---------3/5-----------------------------2------------
5|------------------------------------------------------
6|------------------------------------------------------
 Borraste mis besos me hiciste
 pedazos y duele ver que le entregaste a otro el corazón
1|------------------------------------------------------
2|---1------------1--1-----1------3---------------------
3|-------0---------------0------------------------------
4|-----2---2h3-2-------2------2/4-----------------------
5|------------------------------------------------------
6|------------------------------------------------------

Intro:                                Rift
                                       C
1|-------------------------------------0--------
2|-------------------------------------1--------
3|-------------------------------------0--------
4|---5-7--7/9--7/5--2-2h3h2h0----------2--------
5|-------------------------------------3--------
6|----------------------------------------------

--Versos--
Te fuiste          Quedaron
de aquí todo       las huellas de nuestro amor, no
en silencio
1|-------------------------------------------------------
2|-------------------------------------------------------
3|------5---5h7-7/9--9h10/7--7h8/5-------5---5h7-5-5h6/4-
4|--3/5---5--------------------------3/5---5-------------
5|-------------------------------------------------------
6|-------------------------------------------------------

Sueño que te abrazo una vez más
Me despierto y ya no estás
1|-------------------------------10--12h10-------------
2|------------------------11--13-----------13h11--10---
3|-----------------------------------------------------
4|-----------------------------------------------------
5|-----------------------------------------------------
6|-----------------------------------------------------

Me estoy ahogando
 en el vacío no!...
1|-----------------------------------------------------
2|-----------------------------------------------------
3|-------5/7--7h8h7------5-----------------------------
4|------------------10h9-------------------------------
5|-----------------------------------------------------
6|-----------------------------------------------------

--Coro--
Te fuiste de aquí encontraste otra vida, te fuiste de aquí
1|-----------------------------------------------------
2|----------------3-----------------1-----1-0----------
3|--------------------------------------2--------------
4|------------3/5---------------------2----------------
5|-----------------------------------------------------
6|-----------------------------------------------------

enterraste
la mía aunque no estés yo sigo respirando aquel amor
1|------------------------------------------------------
2|-1---1--------1--1-----1------------3h4-4-1-3h1-----1-
3|---------------------0--------------------------4/2---
4|---2---2h3-2-------2----------------------------------
5|------------------------------------------------------
6|------------------------------------------------------

Te fuiste de aquí descubriste otros brazos
Borraste mis besos me hiciste pedazos
1|----------------------------------------------1-0-----
2|----------3/5--3--5~------------------1-1---1---------
3|--------2-------------------------4/2-----2-----------
4|-------------------------7h5---5----------------------
5|-----------------------7-----7------------------------
6|------------------------------------------------------

Y duele ver que le entregaste a otro el corazón...
1|-------------------------------------------
2|-----------1-----1--3----------------------
3|---------------2---------------------------
4|-------------2-----------------------------
5|-------------------------------------------
6|-------------------------------------------

--Puente--
      Y aun siento en el aire  me acaricia tu voz
1|--------------------------------------------------0----
2|-5--5/9--9--9/5--5-1-1---5--5/9--9--9/5--5-0-1---1-1---
3|-------------------------------------------------------
4|-------------------------------------------------------
5|-------------------------------------------------------
6|-------------------------------------------------------

me robaste la luna, el cielo y las estrellas...
1|----0--------------------------------------------------
2|--1---1--------1-----------------------1--1/3----------
3|-----------------3/5-----------------------------------
4|---------2h3-2-------------------2h3-2-----------------
5|-------------------------------------------------------
6|-------------------------------------------------------
--Coro--
Te fuiste de aquí
encontraste otra vida
Te fuiste de aquí enterraste
la mía aunque no estés yo sigo respirando aquel amor
    F     C/E       Am
1|--x------x---------0----------------------------------
2|--x------x---------1---------------3h4-4-1-3h1-----1--
3|--2------2---------2---------------------------4/2----
4|--3------2---------2----------------------------------
5|--3------3--------------------------------------------
6|--1------x--------------------------------------------

Te fuiste de aquí descubriste otros brazos Borraste mis
                               besos me hiciste pedazos
1|----------------------------------------------1-0--------
2|----------3/5--3--5~------------------1-1---1------------
3|--------2-------------------------4/2-----2--------5/3---
4|-------------------------7h5---5-------------------------
5|-----------------------7-----7---------------------------
6|---------------------------------------------------------

  Y duele ver que le entregaste a otro
1|--------------------------------------------------------
2|-----------1--------3-----------------------------------
3|--------------------------------------------------------
4|-----4h2-4------3/5-------------------------------------
5|--------------------------------------------------------
6|--------------------------------------------------------

el corazón Oh no Le entregaste a otro el corazón...
        Am     G                              C
1|-------5-----3--------------3----8----------8-------
2|-------5-----3------------3---3-------------8-------
3|-------5-----4----------4-------------------9-------
4|-------7-----5------------------------------10------
5|-------7-----5------------------------------10------
6|-------5-----3------------------------------8-------

En Memoria de Christian "Chucho" Benitez

Si tienes duda agreguame.
www.facebook.com/AlexFabianChords
Cchecuu
Saludos desde Chiapas-México
Aviso: Este fichero es trabajo propio de su transcriptor y representa su interpretación personal de la canción. El material contenido en esta página es para exclusivo uso privado, por lo que se prohibe su reproducción o retransmisión, así como su uso para fines comerciales.
Más versiones de Te Fuiste De Aquí, Reik
Te Fuiste De Aqui
acordes
Te Fuiste De Aquí (ver 2)
acordes
Te Fuiste De Aquí
tablatura
Descubre más canciones de Reik

Comentarios en Facebook: