Peligro, Reik (tablatura)

Autor: Anónimo | 30639 visualizaciones

EN REALIDAD ES UN PUNTEO DE LA CANCIÓN, PERO NO HALLÉ DÓNDE MÁS COLOCARLO.

ESTROFAS:
No logre tomar distancia crítica
e|---0---------------------|
b|-----0-1---------0-1-0---|
g|-2--------2--2-2-------2-|
d|-------------------------|
a|-0-----------------------|
E|-------------------------|


Me vuelvo a equivocar la historia típica
e|-------0---------------------|
b|---------0-1---------0-1-0---|
g|-(0)-2--------2--2-2-------2-|
d|-----------------------------|
a|-----0-----------------------|
E|-----------------------------|


En un irracional impulso eléctrico
e|-------0---------------------|
b|---------0-1---------0-1-0---|
g|-(0)-2--------2--2-2-------2-|
d|-----------------------------|
a|-----0-----------------------|
E|-----------------------------|


Mi corazón corre en tu dirección
e|---------------------|
b|-1-------------------|
g|-0-2-0-2--2-2-0-2-2-2|



Me hace tanto mal tu humor errático
e|---0---------------------|
b|-----0-1---------0-1-0---|
g|-2--------2--2-2-------2-|
d|-------------------------|
a|-0-----------------------|
E|-------------------------|



Te sigo sin pensar en automático
e|-------0---------------------|
b|---------0-1---------0-1-0---|
g|-(0)-2--------2--2-2-------2-|
d|-----------------------------|
a|-----0-----------------------|
E|-----------------------------|


Si doy un paso más ya no lograre volver
e|-------0------------------------|
b|---------0-1----0-0-0---0-------|
g|-(0)-2--------2-------2---2-0-2-|
d|--------------------------------|
a|-----0--------------------------|
E|--------------------------------|


No sé como retroceder
e|-----------------|
b|-----------------|
g|2-2--2-2-0-2-2-2-|
d|-----------------|
a|0----0-----------|
E|-----------------|



Una y otra vez tengo que luchar contigo Aaaa Auu
e|-------0---------------------------------|
b|---------0-1----0-0-0---0----------------|
g|-(0)-2--------2-------2---2-0-2--[2-2--2]|
d|-----------------------------------------|
a|-----0-----------------------------------|
E|-----------------------------------------|


CORO:

Vivo en peligro y otra vez corro por la línea
De fuego me besas caigo en tu juego

e|-----0-3-3-3-3-0--3-3-3-3-0-------0----0--3-3-3-----|
b|-1-3------------------------3-1-3---1-3---------3-1-|
g|----------------------------------------------------|
d|----------------------------------------------------|
a|----------------------------------------------------|
E|----------------------------------------------------|

Peligro de caer en tu voz estoy perdido
No escucho a mi sexto sentido
e|---3-3-3-3-0--3-3-3-3-0-----0------0--3-3-3-----|
b|-1-----------------------1-3---1-3----------3-1-|
g|------------------------------------------------|
d|------------------------------------------------|
a|------------------------------------------------|
E|------------------------------------------------|

¡EL RESTO SON MÁS ESTROFAS Y CORO!
Aviso: Este fichero es trabajo propio de su transcriptor y representa su interpretación personal de la canción. El material contenido en esta página es para exclusivo uso privado, por lo que se prohibe su reproducción o retransmisión, así como su uso para fines comerciales.

Comentarios en Facebook: