Fui, Reik (tablatura)

Autor: Anónimo | 26465 visualizaciones

capo on 1st fret
the two verses are played the same.

verse: hoy con el dolor....
e|------3------3-1-----1------1-1------1-----1-------------------------------|
B|----4------4-------3------3--------3-----3---4-----4-3-----3-4---1-4---4---|
G|--3------3-------3------3--------1-----1-------5---------3-----1-----1---1-|
D|-------------------------------------------------5-----3-------------------|
A|---------------------------------------------------------------------------|
E|---------------------------------------------------------------------------|

e|----------------------|
B|--4---4---3---4-------|
G|----3---3---3---3-----|
D|----------------------|  
A|----------------------|
E|----------------------|

e|------3------3-1-----1------1-1------1-----1-------------------------------|
B|----4------4-------3------3--------3-----3---4-----4-3-----3-4---1-4---4---|
G|--3------3-------3------3--------1-----1-------5---------3-----1-----1---1-|
D|-------------------------------------------------5-----3-------------------|
A|---------------------------------------------------------------------------|
E|---------------------------------------------------------------------------|

e|-------------------3-----3-1-----1-----|
B|--4---4---3---4--------2-------3-------|
G|----3---3---3---3----3-------3---------|
D|---------------------------------------| 
A|---------------------------------------|
E|---------------------------------------|




chorus: fui fuego por ti....
e|------3------3-1-----1------1-----------------3-----3-1-----1--|
B|----4------4-------3------3---4-----4-4---1-4-----4-------3----|
G|--3------3-------3------3---------5-----1-------3-------3------|
D|--------------------------------5------------------------------|
A|---------------------------------------------------------------|
E|---------------------------------------------------------------|

e|------3------3-1-----1------1-3-----3-4-----4------------------|
B|----4------4-------3------3-------4-----1-4---3---3---4---3----|
G|--3------3-------3------3-------5---------------3---3---3---3--|
D|---------------------------------------------------------------|
A|---------------------------------------------------------------|
E|---------------------------------------------------------------|

e|----6---3------6---1------3-------4------------|
B|--4---4------3---3------------4---4------------|
G|----------------------5-5---5-----1------------|
D|----------------------------------1------------|
A|----------------------------------3------------|
E|----------------------------------4------------|

bridge:a tu lado fui tan fuerte...
e|--4-------6-------8--------6-----|
B|----6--------8------9------6-----|
G|---------------------------7-----|
D|---------------------------8-----|
A|---------------------------8-----|
E|---------------------------6-----|

final chorus: fui, fuego por ti....
e|--1---1----------------1------1---1------1---1----------------1--------|
B|--1-1----5---5--6------3---3--1-1---5----1-1----5---5--6------3---3--5-|
G|--2------5-5----7---7--3-3----2-----5----2------5-5----7---7--3-3----5-|
D|--3------5------7-7----3------3-----5----3------5------7-7----3------5-|
A|--3------3------5------1------3-----3----3------3------5------1------3-|
E|--1---------------------------1----------1-----------------------------|

e|----------------------------------------------------------------------|
B|----------10-10-----------------10-10-----------------10-10-----------|
G|-------10-------10-----------10-------10-----------10-------10--------|
D|----10-------------10-----10-------------10-----10-------------10-----|
A|--8-------------------8-----------------------1-------------------1---|
E|------------------------8-------------------8-------------------------|

e|------------------------------|
B|----------10-10----------10---|
G|-------10-------10-------10---|
D|----10-------------10----10---|
A|--1----------------------8----|
E|----------------------8--8----|
Aviso: Este fichero es trabajo propio de su transcriptor y representa su interpretación personal de la canción. El material contenido en esta página es para exclusivo uso privado, por lo que se prohibe su reproducción o retransmisión, así como su uso para fines comerciales.
Más versiones de Fui, Reik
Fui
acordes
Fui (ver 2)
acordes
Fui (ver 3)
acordes
Fui (ver 4)
acordes
Fui
tablatura
Fui (ver 2)
tablatura
Descubre más canciones de Reik

Comentarios en Facebook: