De Que Sirve, Reik (tablatura)

Autor: Anónimo | 45820 visualizaciones

|-----------------------------|
|-------------------------1---| repite 
|-2-2--2--2--2--2-----0h2---2-| 2x
|-2-2--2--2--2--2-------------|
|-----------------(2)---------|
|-----------------------------|

|-----------------------------------------|
|-----------------------------------------|
|-2-2--2--2--2--2-----2-2--2--2--2--2-----|
|-2-2--2--2--2--2-----2-2--2--2--2--2-----|
|-----------------3h5-----------------3h5-|
|-----------------------------------------|

|-------------------------------------------|
|-------------------------------------------|
|-2-2--2--2--2--2-5-7---2-2--2--2--2--2-5-7-|
|-2-2--2--2--2--2-5-7---2-2--2--2--2--2-5-7-|
|-0-0--0--0--0--0-3-5---0-0--0--0--0--0-3-5-|
|-------------------------------------------|

|--------8------------------------|-----------------------------|
|-11b------11-8-11-8--------------|-----------------------------|
|--------------------10p8-10-8----|-----------------------------|
|------------------------------8~-|-8-10------------------------|
|---------------------------------|------10p8-10p8/6h8-8p6------|
|---------------------------------|------------------------8-6~-|

|-----------------------------------------------------------|
|--------------------------------------11-11-11-11-11-11-11-|
|--------------------------------8h10--12-12-12-12-12-12-12-|
|---------------------------8-10----------------------------|
|-----6h8/10-----------8-10---------------------------------|
|-6h8--------11p8-8-11--------------------------------------|

|-------------------------------------------|
|-------------------------------------------|
|-10p8-------------------------8h10p8-------|
|------10p8---------------8h10--------10~/--|
|-----------10p8-----8h10-------------------|
|----------------11~------------------------|

-----------------------------------------------------------------|
----10----10-----10------10-----10-----10-----10------10------10-|
-12----12----12------11-----11-----11-----10------10------10-----|
-----------------------------------------------------------------|
-----------------------------------------------------------------|
-----------------------------------------------------------------|

|------------|
|------------|
|---------2--|
|------------|
|-0-0-3h4----|
|------------|

esta es una buena cancion espero les guste
Aviso: Este fichero es trabajo propio de su transcriptor y representa su interpretación personal de la canción. El material contenido en esta página es para exclusivo uso privado, por lo que se prohibe su reproducción o retransmisión, así como su uso para fines comerciales.

Comentarios en Facebook: