Cuando Estas Conmigo, Reik (tablatura)

Autor: Anónimo | 31785 visualizaciones

Una vez más nos encontramos ñacañaca, pss esta canción la verdad esta
bien facil la cosa es tener oido porque muchos se desesperan y le ponen
cualquier acorde parecido pss aqui pongo los originales y si no me crees,
tocalos y escucha y ya veras ja!, en fin.

Todavia no creo en el amor así que no se la dedico a nadie ne!! que se
frieguen, nadie se la merece muhajajaja!

C - x 3 2 0 1 0
Am/f - x x 3 2 1 0 (no estoy seguro si este acorde se llama am/f)
Am/d - x x 0 2 1 0 (Igual que lo otro XD)
G - 3 5 5 4 3 3
F - 1 3 3 2 1 1

*--------------------------*
|h: Hammer o  martilleo    |
|/: Shift slide o resbalar |
*--------------------------*

- Todos los rasgueos son hacia arriba (con la excepción del coro)
- La intro lleva piano pero ni creas que tambien eso te voy a poner bah!!!



C         Am/F      Am/D G
---------------------------------------
--3---3-------------------5----3---3---
----2---2--3-3-3-3--2-0-0--------2---2-
0---0---0----2---2------2--------0---0-
----1---1----1---1------1---3*---1---1-
----0---0----0---0------0---3*---0---0-
                          Puntea un jaloncito hacia arriba con 2 dedos

C                Am/F     Am/D  G      C
Cuando estas conmigo, se llena mi corazón
                 Am/F   Am/D          G        C
Tiene sentido la vida, y el mundo es una ilusión
                 Am/F     Am/D   G      C
Cuando estas conmigo, la noche tiene color
                 Am/F      Am/D    G        C
Y un beso es suficiente, para entender el amor


F         C                    F
Y al abrazarte y sentir que me amas
             C                    F
salen las estrellas aún si es de día
              C                F
Y todos esos días llenos de vacío
       Am/F   G                     C
Se volvieron polvo porque estas conmigo

am/f, am/d, G, C

C                Am/F     Am/D  G      C
Cuando estas conmigo, es bello mi alrrededor
             Am/F   Am/D   G        C
Y una sorisa tuya, derrite mi corazón
                 Am/F      Am/D   G          C
Cuando estas conmigo, el tiempo pierde el valor
               Am/F      Am/D  G            C
Y una carisia tuya, me hace volar hasta el sol


F         C                    F
Y al abrazarte y sentir que me amas
             C                    F
salen las estrellas aún si es de día
              C                F
Y todos esos días llenos de vacío
       Am/F   G
Se volvieron polvo porque estas conmigo


Riff para guit electrica
--------------------------------------------------------------------------
-----------------------------------------------------------------3-2------
-------------------------2----------------------------------2-2-0---------
-1-1/5-----------3h5-3/1---1h3-1---1-2/3------------6--4/5-3-1-1------1-1-
------3-5-3-5---------------------------3-5-5/6-5-3--3--------------------

--------------------------------------------------------------------------
--------------------------------------------------------------------------
-0--------0--------------------------------------------------12-----------
---------3-1h3/5/3-1------------------8/10-10-----------13-10-------------
--1/3/1-0--------------8/10/8-8-/12-------8--12-13-10/12-------10-8/10-6/8

5ta --------------
4ta -5-------7-5--
3ra --5-7-7-5-----
2da -----5--------
1ra --------------

F         C                    F
Y al abrazarte y sentir que me amas
             C                    F
salen las estrellas aún si es de día
              C                F
Y todos esos días llenos de vacío
       Am/F   G                       C
Se volvieron polvo porque estas conmigo

                 Am/F   Am/D          G        C
Tiene sentido la vida, y el mundo es una ilusión
                 Am/F     Am/D   G      C
Cuando estas conmigo,            uuuuuuuu
Aviso: Este fichero es trabajo propio de su transcriptor y representa su interpretación personal de la canción. El material contenido en esta página es para exclusivo uso privado, por lo que se prohibe su reproducción o retransmisión, así como su uso para fines comerciales.
Más versiones de Cuando Estas Conmigo, Reik
Cuando Estas Conmigo
acordes
Cuando Estas Conmigo
tablatura
Descubre más canciones de Reik

Comentarios en Facebook: