Creo En Ti, Reik (tablatura)

Autor: Anónimo | 28979 visualizaciones

=========================================================
|Esta cancion la saque a oido i creo qe esta muy bien la  |
|Cancion se deve tokar con un capotrasto en el 1er traste |
|para qe se facilite mas, ya que yo no pude aserlo sin    |
|el. espero qe les guste (Le ponen 10.00) :B              |
|                                                         |
| Por: Dante Leos /  Dudas: fernando_vde_97@hotmail.com   |
 =========================================================


*CAPOTRASTO - 1er Traste*

Ya no importa cada noche que espere... Y a un segundo de..       

    A# - x2        Fm ? x2        G# - x2        D# - x2       
e|--------------|--------------|--------------|--------------|
B|------3----3--|------1----1--|--------------|--------------|
G|----------3---|----------1---|------5----5--|---- -3----3--|
D|----3----3----|----3----3----|----------6---|----1-----1---|
A|--1-----------|--3-----------|----6----6----|--1------1----|
E|--------------|--------------|--4-----------|--------------|




      -Y encontré, mi corazón se me desarma. Me ases bien...
   
       Cm#             G#             D#             A#  
e|--------------|------4----4--|------3----3--|------1----1--|
B|------4----4--|----------4---|----------4---|----------3---|
G|----------5---|----1----1----|----3----3----|----3----3----|
D|----5----5----|--1-----------|--1-----------|--3-----------|
A|--3-----------|--------------|--------------|--------------|
E|--------------|--------------|--------------|--------------|




-Creo en ti y en este amor que me vuelve indestructible...
  
    D# - x2      A# - x2      Cm# - x2       G#         A#
e|-----3----3-|-----1----1-|------------|-----4---4-|----1- 1|
B|---------4--|---------3--|-----4----4-|--------4--|-------3|
G|---3----3---|---3----3---|---------5--|---1---1---|---3?3--|
D|-1----------|-3----------|---5----5---|-1---------|-3------|
A|------------|------------|-3----------|-----------|--------|
E|------------|------------|------------|-----------|--------|




Creo en ti y en mi dolor, se quedo kilómetros atrás mis fan...

   D# - x2     A# - x2     G - x2        Cm#          A#
e|-----3---3-|-----1---1-|-----3---3-|-----------|-----------|
B|--------4--|--------3--|--------3--|-----4---4-|-----3---3-|
G|---3---3---|---3---3---|---4---4---|--------5--|--------3--|
D|-1---------|-3---------|-5---------|---5---5---|---3---3---|
A|-----------|-----------|-----------|-3---------|-1---------|
E|-----------|-----------|-----------|-----------|-----------|

 
 Fantasmas hot porfin estan atras   =    G#  -  A#  -  D#
Aviso: Este fichero es trabajo propio de su transcriptor y representa su interpretación personal de la canción. El material contenido en esta página es para exclusivo uso privado, por lo que se prohibe su reproducción o retransmisión, así como su uso para fines comerciales.
Más versiones de Creo En Ti, Reik
Creo En Ti
acordes
Creo En Tí (ver 2)
acordes
Creo En Ti (ver 3)
acordes
Creo En Ti
tablatura
Descubre más canciones de Reik

Comentarios en Facebook: